» » »

Thurston Moore - Speak To The Wild Tabs

Artists:  A B C D E F G H I J K L M N O P Q R S T U V W X Y Z # 

Speak To The Wild Tabs

(ver. 1) Click to play this song!
Thurston Moore
 Rating:
3.3/5 (28 votes)

 Speak To The Wild  lessons Tabs too difficult? Try these video lessons and learn fast
 
                
D---*12-----*7----------|
C---*12-----*7----------|
G---*12-----*7----------|           X(LISTEN THE SONG)
D---*12-----*7----------|
G---*12-----*7----------|
C---*12-----*7----------|


D-----------------------|
C-----5-----------------|    
G-----7-----------------|     
D----0------------------|        
G----0------------------|      
C-----------------------|        

Speak to the wild
reach the for wire
protect your child
from empty empire

the king has come to join the band

remove your wings
and meet us near the fire
extinguish things
of earthly desire

D---------0---0---------|  
C--------0-0-0----------| <-VARIATIONS  
G-------0---0-----------|
D------8----------------|
G-----8-----------------|
C-----------------------|

the king has come to meet the band
the king has come with no demand

D-------------------------------|
C-------------------------------|    
G-------------------------------|     
D----10-/5-/3-/5    ------------|        
G----10-/5-/3-/5 x1 ------------|      
C----10-/5-/3-/5    ------------|

don't let the dark get you lost

D--------------0---0------------|
C-------------------------------| <-VARIATIONS    
G------------0---0---0----------|     
D----10-/5-/3-------------------|        
G----10-/5-/3-------------------|      
C----10-/5-/3-------------------|

your free will has come in fire and frost
            
Submit corrections


        Speak To The Wild  lessons Hard to play? Try these video lessons and learn fast Speak To The Wild  lessons
        
↑ Back to top | Tablatures and chords for acoustic guitar and electric guitar, ukulele, drums are parodies/interpretations of the original songs. You may use it for private study, scholarship, research or language learning purposes only