» » »

Thrice - Beltsville Crucible Tabs

Artists:  A B C D E F G H I J K L M N O P Q R S T U V W X Y Z # 

Beltsville Crucible Tabs

(ver. 2) Click to play this song!
Thrice
 Rating:
4/5 (4 votes)

 Beltsville Crucible lessons Tabs too difficult? Try these video lessons and learn fast
 
                "(1)
Here is the end: its lightly palm muted

C#---------------------------------------------------------------------------------------------------------------------------
G#--16-16-16-16-16-16-16-16-16-16-16-16-16-16-16-16-17-17-17-17-17-17-17-17--------------------------
C#--19-19-19-19-21-21-21-21-18-18-18-18-16-16-16-16-19-19-19-19-19-19-19-19--------------------------
F#---------------------------------------------------------------------------------------------------------------------------
A#---------------------------------------------------------------------------------------------------------------------------
D#---------------------------------------------------------------------------------------------------------------------------

C#---------------------------------------------------------------------------------------------------------------------------
G#--16-16-16-16-16-16-16-16-16-16-16-16-16-16-16-16-17-17-17-17-17-17-17-17-17-17-17-17----------
C#--19-19-19-19-21-21-21-21-18-18-18-18-16-16-16-16-19-19-19-19-19-19-16-16-16-16-16-16----------
F#---------------------------------------------------------------------------------------------------------------------------
A#---------------------------------------------------------------------------------------------------------------------------
D#---------------------------------------------------------------------------------------------------------------------------

repeat that a few times

C#---------------------------------------------------------------------------------------------------------------------------
G#---------------------------------------------------------------------------------------------------------------------------
C#---------------------------------------------------------------------------------------------------------------------------
F#--6-6-6-6-6-6-6-6-6-6-6-6-------------------------------------------------------------------------------------------
A#--5-5-5-5-5-5-5-5-5-5-5-5-2-2-2-2-5-5-5-5-5-5-5-5-5-5-5-5------------------------------------------------
D#--5-5-5-5-7-7-7-7-4-4-4-4-2-2-2-2-5-5-5-5-5-5-5-5-5-5-5-5------------------------------------------------

C#---------------------------------------------------------------------------------------------------------------------------
G#---------------------------------------------------------------------------------------------------------------------------
C#---------------------------------------------------------------------------------------------------------------------------
F#--6-6-6-6-6-6-6-6-6-6-6-6-------------------------------------------------------------------------------------------
A#--5-5-5-5-5-5-5-5-5-5-5-5-2-2-2-2-5-5-5-5-5-5-5-5/3-3-3-3-3-3-------------------------------------------
D#--5-5-5-5-7-7-7-7-4-4-4-4-2-2-2-2-5-5-5-5-5-5-5-5/2-2-2-2-2-2-------------------------------------------

repeat that a few times
and end on

C#--0~----
G#--0~----
C#--0~----
F#---------
A#---------
D#---------
"            
Submit corrections


        Beltsville Crucible lessons Hard to play? Try these video lessons and learn fast Beltsville Crucible lessons
        
↑ Back to top | Tablatures and chords for acoustic guitar and electric guitar, ukulele, drums are parodies/interpretations of the original songs. You may use it for private study, scholarship, research or language learning purposes only