Home » T » Thrice »

Thrice - Artist In The Ambulance Tabs

Artists:  A B C D E F G H I J K L M N O P Q R S T U V W X Y Z # 

Artist In The Ambulance Tabs

(ver. 2) Click to play this song!
Thrice
 Rating:
4/5 (4 votes)
                            THE ARTIST IN THE AMBULANCE - Thrice


DROP C TUNING!!!

... - palm mute
~   - let ring out
   - strumming not defined
/ \ - slide
h   - hammer on
p   - pull off



GUITAR 1'S PARTS:
-----------------
Intro:  (Strumming not defined)  "Late night..."  (2x)
D|-----------------------|(Play this 3x when full band comes in)
A|-----------------------|-----------------------|
F|-----------------------|-------------3>--------|
C|--------8>---3>--------|---5>---1>---3>---3>---|
G|---5>---6>---1>---3>---|---5>---1>---1>---3>---|
C|---5>-------------3>---|---5>---1>--------3>---|
     .    .    .    .

Verse:  (Ring out's first time, palm mute 2nd time)  "Now I lay here..."
D|--------------------------------------------------|
A|--------------------------------------------------|
F|---------------3~---------------------------------|
C|---5~----1~----3~----3~---------------3>----------|
G|---5~----1~----1~----3~---5>----1>----1>----3>----|
C|---5~----1~----------3~---5>----1>----------3>----|
                            .     .     .     .

Chorus:  "I hope..."  (Strumming not defined)
D|----------------------------------------------|
A|----------------------------------------------|
F|----------------------------------------------|
C|---1>-----5-5-5-5-5-----5-----3-1>---5>---3>--|
G|---1>-----5-5-5-5-5---5-----3---1>---5>---3>--|
C|---1>-----5-5-5-5-5-5-----3-----1>---5>---3>--|

Repeat Intro:  1x no singing

2nd Verse:  "Look around..."
D|---------------------------------------------------------------------------|
A|---------------------------------------------------------------------------|
F|---------------------------------------------------------------------------|
C|-5x----1-1-1-1-1-1-1-1-1-1-1-1-1-1-1-1-8\---3-3-3-3-3-3-3-3-3-3-3-3-3-3-3-3|
G|-5x----1-1-1-1-1-1-1-1-1-1-1-1-1-1-1-1-8\---3-3-3-3-3-3-3-3-3-3-3-3-3-3-3-3|
C|-5x----1-1-1-1-1-1-1-1-1-1-1-1-1-1-1-1-8\---3-3-3-3-3-3-3-3-3-3-3-3-3-3-3-3|

2nd Verse Cont'd:  (Strumming not defined)
D|---------------------|
A|---------------------|
F|------------3>-------|
C|--5>---1>---3>---3>--|
G|--5>---1>---1>---3>--|
C|--5>---1>--------3>--|

Repeat Chorus

Bridge:  "Rhetoric can't raise..."  (Strumming not defined)
D|------------------------------|
A|------------------------------|
F|------------------------------|
C|--5>----3>----5>----3>---1>---|
G|--5>----3>----5>----3>---1>---|
C|--5>----3>----5>----3>---1>---|

Repeat Intro:  (Palm mute first time, 2x without palm mute)

Last Chorus:
D|---------------------------------------------------------------------------|
A|---------------------------------------------------------------------------|
F|-------------------------------------------------------------------------3>|
C|---1>-----5-5-5-5-5-----5-----3-1>---5>---3>---1----5>--3>---1>--5>--3>--1>|
G|---1>-----5-5-5-5-5---5-----3---1>---5>---3>---1----5>--3>---1>--5>--3>--1>|
C|---1>-----5-5-5-5-5-5-----3-----1>---5>---3>---1----5>--3>---1>--5>--3>--1>|

End On:
D|-------|
A|-------|
F|---3~--|
C|---1~--|
G|---1~--|
C|---1~--|

GUITAR 2'S PARTS:
-----------------
Intro:  (Guitar 1 alone 2x, come in on 3rd time)
D-------------------------------------------------------------------------------------------------------------|
A--15------------15----15--15--13--15----15----------15----------15----15-16-15--15h16p15--13-15--11/13-------|
F-----12--15--12----12----------------15----14-15-12----14-15-12----12-----------------------------------15---|
C-------------------------------------------------------------------------------------------------------------|
G-------------------------------------------------------------------------------------------------------------|
C-------------------------------------------------------------------------------------------------------------|



 							   1/2 1/2
D---------------13--------------------------------------------------------------------------------------------|
A--13--13-15----------15----15-13-15----15-13h15p13----13--15^-15^-15-13-15-------15-------------13-15--------|
F------------15----15----15----------15-------------15----------------------14-15----14-14-15-14-------15-14--|
C-------------------------------------------------------------------------------------------------------------|
G-------------------------------------------------------------------------------------------------------------|
C-------------------------------------------------------------------------------------------------------------|

Verse:  "Now I lay here..."  (Come in on 2nd time, play same as guitar 1)

Chorus:  "I hope..."  (2x)
D|---10----10----10----10----------------------------10----10----10----10----|
A|11----11----11----11----13-13-13-11-11-11-11-11-11----11----11----11----13-|
F|---------------------------------------------------------------------------|
C|---------------------------------------------------------------------------|
G|---------------------------------------------------------------------------|
C|---------------------------------------------------------------------------|

Chorus Cont'd:
D|---------------------------------------------------------------------------|
A|13-13-11-11-11-11-11-11-11-11-11-11-11-11-11-10-10-10-10-10-10-10-10-------|
F|---------------------------------------------------------------------------|
C|---------------------------------------------------------------------------|
G|---------------------------------------------------------------------------|
C|---------------------------------------------------------------------------|

Repeat Intro Cool Riff

2nd Verse:  "Look around..."
D|---------------------------------------------------------------------------|
A|---------------------------------------------------------------------------|
F|---------------------------------------------------------------------------|
C|-5x----1-1-1-1-1-1-1-1-1-1-1-1-1-1-1-1-8\---3-3-3-3-3-3-3-3-3-3-3-3-3-3-3-3|
G|-5x----1-1-1-1-1-1-1-1-1-1-1-1-1-1-1-1-8\---3-3-3-3-3-3-3-3-3-3-3-3-3-3-3-3|
C|-5x----1-1-1-1-1-1-1-1-1-1-1-1-1-1-1-1-8\---3-3-3-3-3-3-3-3-3-3-3-3-3-3-3-3|

2nd Verse Cont'd:  (Strumming not defined)
D|---------------------|
A|---------------------|
F|------------3>-------|
C|--5>---1>---3>---3>--|
G|--5>---1>---1>---3>--|
C|--5>---1>--------3>--|

Repeat Chorus

Bridge:  "Rhetoric can't raise..."  (Strumming not defined)
D|------------------------------|
A|------------------------------|
F|------------------------------|
C|--5>----1>----5>----3>---1>---|
G|--5>----1>----5>----3>---1>---|
C|--5>----1>----5>----3>---1>---|

Repeat Intro:  (Only guitar 1 on 2nd time and play the cool riff)

Repeat Chorus

Last Measure of Chorus:  "More than flashing..."  (Strumming not defined)
D|--------------------------------------------------------------|
A|--------------------------------------------------------------|
F|---12>---14>---15>---15/17-15>--15/17/19--19/20\19>----19~----|
C|----x-----x-----x-----x--x--x----x--x--x---x--x--x------x-----|
G|---10>---12>---13>---13/15-13>--13/15/17--17/18\17>----17~----|
C|--------------------------------------------------------------|

The leads in this song are very hard to hear so I couldn't pick all of them out.
I'm sorry, please forgive me.  Don't forget to drop tune your guitar before
playing it.
            
Submit corrections

↑ Back to top | Tablatures and chords for acoustic guitar and electric guitar, ukulele, drums are parodies/interpretations of the original songs. You may use it for private study, scholarship, research or language learning purposes only