Home » T » Thrice »

Thrice - Identity Crisis Tabs

Artists:  A B C D E F G H I J K L M N O P Q R S T U V W X Y Z # 

Identity Crisis Tabs

(ver. 2) Click to play this song!
Thrice
 Rating:
4/5 (4 votes)
                Hey, heres a look at the intro for indentity crises:
e\----------------------------------------------------------------------------------/
B\----------------------------------------------------------------------------------/
G\----------------------------------------------------------------------------------/
D\------------4-----4-----4-----4\5-4-----------------------------------------------/
A\------2---------------------------------------------------------------------------/
E\--0-0---0-0---0-0---0-0---0-0-----------------------------------------------------/


e\----------------------------------------------------------------------------------/
B\----------------------------------------------------------------------------------/
G\----------------------------------------------------------------------------------/
D\------2-----0-----4-----4/5-4-----------------------------------------------------/
A\--3-3---3-3---3-3---3-3-----------------------------------------------------------/
E\----------------------------------------------------------------------------------/


e\----------------------------------------------------------------------------------/
B\----------------------------------------------------------------------------------/
G\----------------------------------------------------------------------------------/
D\------------------4-----4/5-4-----------------------------------------------------/
A\------2-----0---------------------------------------------------------------------/
E\--3-3---3-3---3-3---3-3-----------------------------------------------------------/


e\----------------------------------------------------------------------------------/
B\----------------------------------------------------------------------------------/
G\----------------------------------------------------------------------------------/
D\------4-----5-----7-----5-----4---------------------------------------------------/
A\--5-5---5-5---5-5---5-5---5-5-----------------------------------------------------/
E\----------------------------------------------------------------------------------/

Here yah go! Have fun! Ill try to have the rest of the song soon. Later
            
Submit corrections

↑ Back to top | Tablatures and chords for acoustic guitar and electric guitar, ukulele, drums are parodies/interpretations of the original songs. You may use it for private study, scholarship, research or language learning purposes only