» » »

Thrice - Hideous Strength Tabs

Artists:  A B C D E F G H I J K L M N O P Q R S T U V W X Y Z # 

Hideous Strength Tabs

(ver. 1) Click to play this song!
Thrice
 Rating:
4/5 (4 votes)

 Hideous Strength lessons Tabs too difficult? Try these video lessons and learn fast
 
                

... - palm mute
~   - let ring out
p   - pull off
8x
8x  - mute after strumming
8x
/ \ - slide


GUITAR 1'S PARTS:
-----------------
Verse:  (2x)
e|---------------------------------------------------------------------------|
B|---------------------------------------------------------------------------|
G|---------------------------------------------------------------------------|
D|------------10-10-10-------------10-10-10-------------10-10-10-------------|
A|-------------8--8--8--------------7--7--7--------------8--8--8-------------|
E|0-0-0-0--0---8--8--8-0-0-0-0--0---7--7--7-0-0-0-0--0---8--8--8-0-0-0-0--0--|
  .......  .           .......  .           .......  .           .......  .

Verse Cont'd:
e|---------------------------------------------------------------------------|
B|---------------------------------------------------------------------------|
G|---------------------------------------------------------------------------|
D|1--1-----------------------------------------------------------------------|
A|1--1-----------------------------------------------------------------------|
E|1--1-----------------------------------------------------------------------|

Next Part:
e|---------------------------------------------------------------------------|
B|---------------------------------------------------------------------------|
G|---------------------------------------------------------------------------|
D|0-7-8~---0-7-8~---0-7-8~---0-7-8-8x----------------------------------------|
A|0-7-8~---0-7-8~---0-7-8~---0-7-8-8x----------------------------------------|
E|0-7-8~---0-7-8~---0-7-8~---0-7-8-8x----------------------------------------|

Repeat Verse

Part After That:  (Lets call this #1 and the order is 1-1-1-2-1-2)
e|---------------------------------------------------------------------------|
B|---------------------------------------------------------------------------|
G|---------------------------------------------------------------------------|
D|0-0-0-0-0-10-10-10-10-10-10-10-10-10-10-10-10-10-10-10-10-10-10------------|
A|0-0-0-0-0-10-10-10-10-10-10--8--8--8--8--8--8--7--7--7--7--7--7------------|
E|0-0-0-0-0-10-10-10-10-10-10--8--8--8--8--8--8--7--7--7--7--7--7------------|

Part After That Cont'd:  (Lets call this #2 and the order is 1-1-1-2-1-2)
e|---------------------------------------------------------------------------|
B|---------------------------------------------------------------------------|
G|---------------------------------------------------------------------------|
D|0-0-0-0-0-10-10-10-10-10-10-5-5-5-5-5-5-3-3-3-3-3-3------------------------|
A|0-0-0-0-0-10-10-10-10-10-10-5-5-5-5-5-5-3-3-3-3-3-3------------------------|
E|0-0-0-0-0-10-10-10-10-10-10-5-5-5-5-5-5-3-3-3-3-3-3------------------------|

Part After That Cont'd:  (Ring Out)
e|---------------------------------------------------------------------------|
B|---------------------------------------------------------------------------|
G|---------------------------------------------------------------------------|
D|0~---0~--------------------------------------------------------------------|
A|0~---0~--------------------------------------------------------------------|
E|0~---0~--------------------------------------------------------------------|

Metal Part:  (8x)  (#1)
e|-------------|
B|-------------|
G|-------------|
D|-------------|
A|-------------|
E|---0-0-0-0---|
     .......

Metal Part Cont'd:  (#2)
e|---------------------------------------------------------------------------|
B|---------------------------------------------------------------------------|
G|-8\7-7--------------8\7-7--------------8\7-7-------------------------------|
D|-8\7-7--------------8\7-7--------------8\7-7-------------------------------|
A|-6\5-5--------------6\5-5--------------6\5-5--------------1-1-1-1-3-3-3-3--|
E|-------0-0-0--0-0-0-------0-0-0--0-0-0-------0-0-0--0-0-0------------------|
         .....  .....       .....  .....       .....  ..... ...............

End of Metal Part:
e|---------------------------------------------------------------------------|
B|---------------------------------------------------------------------------|
G|3-2------------------------------------------------------------------------|
D|----3-2p0---6-6-6x---------------------------------------------------------|
A|----------3-6-6-6x---------------------------------------------------------|
E|------------6-6-6x---------------------------------------------------------|

Order For Metal Part:  1-2-1-2-2-end of metal part

Rhythm for Finger Tapping:  (Play Verse 2x)

Rhythm for Finger Tapping Cont'd:  (2x)
e|---------------------------------------------------------------------------|
B|---------------------------------------------------------------------------|
G|---------------------------------------------------------------------------|
D|--------------------------------------------1-1-1-1------------------------|
A|--------------------------------------------1-1-1-1------------------------|
E|-0-0-0-0x---0-0-0-0x---0-0-0-0x---0-0-0-0x--1-1-1-1------------------------|
   .......    .......    .......    .......

Ending:  (High note fades in)
e|---------------22~~~~~~~~--|
B|---------------------------|
G|-0~------------------------|
D|-0~------------------------|
A|-0~------------------------|
E|-0~------------------------|

GUITAR 2'S PARTS:
-----------------
Verse:  (2x)
e|---------------------------------------------------------------------------|
B|---------------------------------------------------------------------------|
G|---------------------------------------------------------------------------|
D|-------------10-10-10-------------10-10-10-------------10-10-10------------|
A|--------------8--8--8--------------7--7--7--------------8--8--8------------|
E|-0-0-0-0--0-----------0-0-0-0--0-----------0-0-0-0--0-----------0-0-0-0--0-|
   .......  .           .......  .           .......  .           .......  .

Verse Cont'd:
e|--------------------------------------------------------------------------|
B|--------------------------------------------------------------------------|
G|--------------------------------------------------------------------------|
D|1--1----------------------------------------------------------------------|
A|1--1----------------------------------------------------------------------|
E|1--1----------------------------------------------------------------------|

Next Part:  (1x)
e|--------------------------------------------------------|
B|--------------------------------------------------------|
G|--------10----10----10----10----10----10----10----10----|
D|0-7-8~-----10----10----10----10----10----10----10----10-|
A|0-7-8~--------------------------------------------------|
E|0-7-8~--------------------------------------------------|

Next Part Cont'd:
e|--------------------------------------------------------|
B|--------------------------------------------8~----------|
G|--------10----10----10----10----10----10----------------|
D|0-7-8~-----10----10----10----10----10----10-------------|
A|0-7-8~--------------------------------------------------|
E|0-7-8~--------------------------------------------------|

Next Part Cont'd:
e|--------------------------------------------------------|
B|-----------------8-------------------------8------------|
G|--------10----10---10----10----10----10-----------------|
D|0-7-8~-----10---------10----10----10----10----0-7-8-8x--|
A|0-7-8~----------------------------------------0-7-8-8x--|
E|0-7-8~----------------------------------------0-7-8-8x--|

Repeat Verse

Part After That:  (2x)
e|---------------------------------------------------------------------------|
B|---------------------------------------------------------------------------|
G|---------------------------------------------------------------------------|
D|0-0-0-0-0-10-10-10-10-10-10-10-10-10-10-10-10-10-10-10-10-10-10------------|
A|0-0-0-0-0-10-10-10-10-10-10--8--8--8--8--8--8--7--7--7--7--7--7------------|
E|0-0-0-0-0-10-10-10-10-10-10--8--8--8--8--8--8--7--7--7--7--7--7------------|

Part After That Cont'd:  (2x)
e|---------------------------------------------------------------------------|
B|---------------------------------------------------------------------------|
G|---------------------------------------------------------------------------|
D|----7-----3---2-----3---3h5p3-2h3-----7-----3---2-----2---2h3p2------------|
A|5-5---5-5---5---5-5---5-----------5-5---5-5---5---5-5---5-------3p0--------|
E|---------------------------------------------------------------------------|
  ...   ...   .   ...   .           ...   ...   .   ...   .

Part After That Cont'd:
e|---------------------------------------------------------------------------|
B|---------------------------------------------------------------------------|
G|-----5/7-7-7\5-5-5\3-3-3-2-2-----8/10-10-10\8-8-8\7-7-7\5-5----------------|
D|0~---5/7-7-7\5-5-5\3-3-3-2-2-0~--8/10-10-10\8-8-8\7-7-7\5-5----------------|
A|0~---3/5-5-5\3-3-3\1-1-1-0-0-0~--6/-8--8--8\6-6-6\5-5-5\3-3----------------|
E|0~---------------------------0~--------------------------------------------|

Metal Part:  (8x)  (#1)
e|---------------------------------------------------------------------------|
B|---------------------------------------------------------------------------|
G|---------------------------------------------------------------------------|
D|---------------------------------------------------------------------------|
A|---------------------------------------------------------------------------|
E|0-0-0-0--------------------------------------------------------------------|
  .......

Metal Part Cont'd:  (#2)
e|---------------------------------------------------------------------------|
B|---------------------------------------------------------------------------|
G|8\7-7--------------8\7-7--------------8\7-7--------------------3------5----|
D|8\7-7--------------8\7-7--------------8\7-7----------------3--------5------|
A|6\5-5--------------6\5-5--------------6\5-5--------------1---1----3--------|
E|------0-0-0--0-0-0-------0-0-0--0-0-0-------0-0-0--0-0-0-------------------|
        .....  .....       .....  .....       .....  ..... .....    ...

End of Metal Part:
e|---------------------------------------------------------------------------|
B|---------------------------------------------------------------------------|
G|---------------------------------------------------------------------------|
D|3-2---------6-6-6\x--------------------------------------------------------|
A|----3-0h3p0-6-6-6\x--------------------------------------------------------|
E|------------6-6-6\x--------------------------------------------------------|

Order For Metal Part:  1-2-1-2-2-end of metal part

Finger Tapping: (4x) 
e|---------------------------------------------------------------------------|
B|--10p6p3-10p6p3-10p6p3-10p6p3-10p6p3-10p6p3-11p6p3-11p6p3-11p6p3-11p6p3----|
G|---------------------------------------------------------------------------|
D|---------------------------------------------------------------------------|
A|---------------------------------------------------------------------------|
E|---------------------------------------------------------------------------|

Finger Tapping Cont'd: 
e|---------------------------------------------------------------------------|
B|--11p6p3-11p6p3-13p6p3-13p6p3-13p6p3-13p6p3-13p6p3-13p6p3-11p6p3-11p6p3----|
G|---------------------------------------------------------------------------|
D|---------------------------------------------------------------------------|
A|---------------------------------------------------------------------------|
E|---------------------------------------------------------------------------|

Finger Tapping Cont'd
e|------------------------------|
B|--11p6p3-10p6p3-10p6p3-10p6p3-|
G|------------------------------|
D|------------------------------|
A|------------------------------|
E|------------------------------|

Ending:  (ring for days)
e|---------|
B|---------|
G|-0~------|
D|-0~------|
A|-0~------|
E|-0~------|

Mmmmmm....Thrice.  This song=tight.  If you find errors, e-mail us.
            
Submit corrections


        Hideous Strength lessons Hard to play? Try these video lessons and learn fast Hideous Strength lessons
        
↑ Back to top | Tablatures and chords for acoustic guitar and electric guitar, ukulele, drums are parodies/interpretations of the original songs. You may use it for private study, scholarship, research or language learning purposes only