» » »

Thrice - Broken Lungs Tabs

Artists:  A B C D E F G H I J K L M N O P Q R S T U V W X Y Z # 

Broken Lungs Tabs

(ver. 2) Click to play this song!
Thrice
 Rating:
4/5 (4 votes)

 Broken Lungs lessons Tabs too difficult? Try these video lessons and learn fast
 
                			     Broken Lungs - Thrice


Tuning: Down whole step (DGCFAD)

Treat the chords as if you were in
standard tuning. If you want to embellish
it just a little more, you can use this 
Gadd11 thing in place of the G's:

|-0-------3---------------3-3-3-3------|
|-0h1-0h1---1-0h1-0h1-0h1-1-1-1-1------|
|-0-----------------------0-0-0-0------|
|-0-----------------------0-0-0-0------|
|-2------------------------------------|
|-3------------------------------------|

Intro:

|----------3---------------3----------|
|--0---0-------0---0---0-------0------|
|----5---5---5---5---5---5---5---5----|   x 2
|-------------------------------------|
|-------------------------------------|
|-------------------------------------|


Am             C          G
   Woke up to a brand new skyline

Am                        C             G
   We licked our wounds and mourned the dead

Am              C                G
   Swallowed the story, hook and sinker

                   Am                C        G                     
   Is that what we meant, when we said That we never would forget?

F                           C(2)(8th fret)
   Are we fools and cowards all

F                              C
   To let them cover up their lies?

F                                      C(2)
   'Cause we all watched the buildings fall

F                                       C
   And watched the scales fall from our eyes 

Solo:                           C

|-8-7-----------------------------------3---------------3---x--|
|-----8-------8-----------------0h1-0h1---1-0h1-0h1-0h1-----x--|
|-------9-7-9---9--------7------0---------------------------x--|
|------------------10-10---10---2---------------------------x--|
|-------------------------------3---------------------------x--|
|-----------------------------------------------------------x--|


|-8-7-----------------------------------3---------------3---x--|
|-----8-------8-----------------0h1-0h1---1-0h1-0h1-0h1-----x--|
|-------9-7-9---9--------7-7----0---------------------------x--|
|------------------10-10--------2---------------------------x--|
|-------------------------------3---------------------------x--|
|-----------------------------------------------------------x--|

*Play twice*


Am             C        G
   A fire burns beneath Manhattan

Am                   C          G
   Still we breathe with broken lungs

Am             C            G
   We act like none of this matters

                    Am               C            G
   Is that what we meant, when we said That we'd sing what must be sung?

F                           C(2)
   Are we fools and cowards all

F                             C
   To let them cover up their lies?

F                                     C(2)
   'Cause we all watched the buildings fall

F                                       C
   And watched the scales fall from our eyes

   E  E7   G
   We want answers

   E      E7       G
   Scream from the roofs

   E  E7   G
   We want justice

   E  E7        G
   We want the truth

Am  C  G  X2

End on Am

| h  hammer-on
| x  Mute note
            
Submit corrections


        Broken Lungs lessons Hard to play? Try these video lessons and learn fast Broken Lungs lessons
        
↑ Back to top | Tablatures and chords for acoustic guitar and electric guitar, ukulele, drums are parodies/interpretations of the original songs. You may use it for private study, scholarship, research or language learning purposes only