» » »

Thrice - Blood Clots And Black Holes Tabs

Artists:  A B C D E F G H I J K L M N O P Q R S T U V W X Y Z # 

Blood Clots And Black Holes Tabs

(ver. 2) Click to play this song!
Thrice
 Rating:
4/5 (4 votes)

 Blood Clots And Black Holes lessons Tabs too difficult? Try these video lessons and learn fast
 
                Drop-C tuning. Lead guitar (for now).

Intro, pt. 1 (x4)
-----8-0-7-0-7-8-10-0-8-0-7h8p7p0-5-7------8-0-7-0-7-8-----8-7---8-7-----------
-0h7----------------------------------0h7--------------0h7-----6---------------

Intro, pt. 2
-0-000-000-000-000-000-888-0-000-000-000-000-000-101010-0----------------------
-0-000-000-000-000-000-888-0-000-000-000-000-000-101010-0----------------------
-0-000-000-000-000-000-888-0-000-000-000-000-000-101010-0----------------------
   xxx xxx xxx xxx xxx       xxx xxx xxx xxx xxx

-000-000-000-000-000-8-7-8-10-101010-101010-101010-7-7777777-------------------
-000-000-000-000-000-8-7-8-10-101010-101010-101010-7-7777777-------------------
-000-000-000-000-000-8-7-8-10-101010-101010-101010-7-7777777-------------------
 xxx xxx xxx xxx xxx           x x x  x x x  x x x

Verse (x4)
-----8-0-7-0-7-8-10-0-8-0-7h8p7p0-5-7------0-8-0-7-0-7-8-----8-7---8-7---------
-7h8----------------------------------7h8----------------7h8-----8-------------

Chorus
-15-9-10-12-10-9-15-9-10-12-10-9-14--------14--------14--------14----14--------
---------------------------------12--------12--------12------------------------
-13-7--8-10--8-7-13-7--8-10--8-7-12-000000-12-000000-12-000000-12-00-12--------
---------------------------------12-000000-12-000000-12-000000----00-----------
                                    xxxxxx    xxxxxx    xxxxxx    xx

-14-9-10-12-10-9-15-9-10-12-10-9-15-9-10-12-10-9-------------------------------
-12-7--8-10--8-7-13-7--8-10--8-7-13-7--8-10--8-7-------------------------------

Bridge, pt. 1 (fill 1)
------------------------------------------10-----------------------------------
-----8-----10-----8-----12-----8-----10------8h10p8----------------------------
-007---007----007---007----007---007----0-----------8-10-----------------------
 xxx   xxx    xxx   xxx    xxx   xxx

Bridge, pt. 2 (x7)
-----8-----10-----8-----12-----------------------------------------------------
-007---007----007---007--------------------------------------------------------
 xxx   xxx    xxx   xxx

Bridge, pt. 3 (fill 2)
--------------------------12h14p12---------------------------------------------
-----8-----10-------12h14------------------------------------------------------
-007---007----12h14------------------------------------------------------------
 xxx   xxx
            
Submit corrections


        Blood Clots And Black Holes lessons Hard to play? Try these video lessons and learn fast Blood Clots And Black Holes lessons
        
↑ Back to top | Tablatures and chords for acoustic guitar and electric guitar, ukulele, drums are parodies/interpretations of the original songs. You may use it for private study, scholarship, research or language learning purposes only