» » »

Thrice - Atlantic Tabs

Artists:  A B C D E F G H I J K L M N O P Q R S T U V W X Y Z # 

Atlantic Tabs

(ver. 2) Click to play this song!
Thrice
 Rating:
4/5 (7 votes)

 Atlantic lessons Tabs too difficult? Try these video lessons and learn fast
 
                Guitar 1: Standard Tuning (E,A,D,G,B,E) Acoustic
Guitar 2: Drop C tuning (C,G,C,F,A,D)

/ \ = Slide
~ = let ring

just a few things to note...the intro is not guitar,
listen for the strumming pattern of guitar 1, and as
far as the chords go i'm not sure if i placed them in
the right order because the bass tends to drown out
the acoustic's sound, but i think it sounds pretty good
...some of the notes for guitar 2 are very hard to hear,
but they are there...you just have to listen carefully.
please let me know what you think...enjoy!

Guitar 1


Chorus (00:56)

(Am)         (C)         (Em)
------------------------------------------------|
-11--111111--11--111111-------------------------|
-22--222222-------------------------------------|
-22--222222--22--222222--22-222222--------------|
-------------33--333333--22-222222--22--222222--| (x3)
------------------------------------33--333333--|

(Am)         (C)         (Em)
----------------------------|
-11--111111--11--111111-----|
-22--222222-----------------|
-22--222222--22--222222--2~-|
-------------33--333333--2~-|
----------------------------|


Verse (01:28)

(Em)                     (Am)        (C)
------------------------------------------------|
-------------------------11--111111--11--111111-|
-------------------------22--222222-------------|
-22--222222--22--222222--22--222222--22--222222-|
-22--222222--22--222222--------------33--333333-| (x4)
------------------------------------------------|


Chorus (02:06)

(Am)         (C)         (Em)
------------------------------------------------|
-11--111111--11--111111-------------------------|
-22--222222-------------------------------------|
-22--222222--22--222222--22-222222--------------|
-------------33--333333--22-222222--22--222222--| (x3)
------------------------------------33--333333--|

(Am)         (C)         (Em)
----------------------------|
-11--111111--11--111111-----|
-22--222222-----------------|
-22--222222--22--222222--2~-|
-------------33--333333--2~-|
----------------------------|


repeat chorus at (02:56)


Guitar 2


Chorus (00:54)

my eyes are open...
---------------------------|
-2/7~----5-7--7--10-9-5----|
------6~----------------6--|
---------------------------|
---------------------------|
---------------------------|


(01:04)
motion...
-------------------------|
-5/7~----5-7--7-7p5---5--|
------6~------------6----|
-------------------------|
-------------------------|
-------------------------|


(01:14)
---------------------------------------------------|
-5/7~--7---10-9\5----------------------------------|
---------6--------6--------------------------------|
-----------------------7-6~--6-7-9---7-6~--9--7-6--|
---------------------------------------------------|
---------------------------------------------------|


Chorus (02:04)

my eyes are open...
---------------------------|
-2/7~----5-7--7--10-9-5----|
------6~----------------6--|
---------------------------|
---------------------------|
---------------------------|


(02:14)
motion...
-------------------------|
-5/7~----5-7--7-7-5---5--|
------6~------------6----|
-------------------------|
-------------------------|
-------------------------|

(02:24)
-------------------------------------------------|
-5/7~--7---10-9\5--------------------------------|
---------6--------6------------------------------|
---------------------7-6~--6-7-9---7-6~--9--7-6--|
-------------------------------------------------|
-------------------------------------------------|


SOLO (2:37)

----10-9---------------10-9---------      ---10-9----------|
--7------10-9-12-----7------10-9-7--      -7------10-9-12--|
------------------------------------      -----------------|
------------------------------------      -----------------|
------------------------------------ (x3) -----------------|
------------------------------------      -----------------|


Chorus (02:55)

-----------------------------|
-5-7~------5-7--7--10-9-5----|
-------6~------------------6-|
-----------------------------|
-----------------------------|
-----------------------------|


(03:05)
motion...
---------------------------|
-5/7~------5-7--7-7-5---5--|
-------6~-------------6----|
---------------------------|
---------------------------|
---------------------------|


(03:14)
-------------------------------------------------------|
-5/7~------10-9\5--------------------------------------|
-------6~----------6-----------------------------------|
---------------------7-6~--6-7-9---7-6~--9--7--6~--4~~-|
-------------------------------------------------------|
-------------------------------------------------------|
            
Submit corrections


        Atlantic lessons Hard to play? Try these video lessons and learn fast Atlantic lessons
        
↑ Back to top | Tablatures and chords for acoustic guitar and electric guitar, ukulele, drums are parodies/interpretations of the original songs. You may use it for private study, scholarship, research or language learning purposes only