» » »

Thrice - As The Crow Flies Tabs

Artists:  A B C D E F G H I J K L M N O P Q R S T U V W X Y Z # 

As The Crow Flies Tabs

(ver. 2) Click to play this song!
Thrice
 Rating:
4.3/5 (6 votes)

 As The Crow Flies lessons Tabs too difficult? Try these video lessons and learn fast
 
                  Mother crow,                  Feels no pain, 

e|-----------------------------|----------------------------------------------|
B|-----------------------------|----------------------------------------------|
G|-----------------------------|----------------------------------------------|
D|-13----13------11-----11-----|-13-----13-----11-----11----------------------|
A|---0-0----0-0-----0-0----0-0-|----0-0----0-0----0-0----0-0------------------|
E|-----------------------------|----------------------------------------------|

  Speaks no Words.

e|---------------------------------------------------------------------------|
B|---------------------------------------------------------------------------|
G|-------------------------11---11-------------------------------------------|
D|-13----13----14----14----------------14----14------------------------------|
A|---11----11----11----11----11---11-----11----11----------------------------|
E|-----0-----0-----0-----0-----0----0------0-----0---------------------------|

  Speckled Egg,                 Hatching Slow. 

e|-----------------------------|----------------------------------------------|
B|-----------------------------|----------------------------------------------|
G|-----------------------------|----------------------------------------------|
D|-13----13------11-----11-----|-13-----13-----11-----11----------------------|
A|---0-0----0-0-----0-0----0-0-|----0-0----0-0----0-0----0-0------------------|
E|-----------------------------|----------------------------------------------|

  Bible-black, Baby Bird.

e|---------------------------------------------------------------------------|
B|---------------------------------------------------------------------------|
G|-------------------------11---11------13----13-----------------------------|
D|-13----13----14----14------------------------------------------------------|
A|---11----11----11----11----11---11-----11----11----------------------------|
E|-----0-----0-----0-----0-----0----0------0-----0---------------------------|

  One Day,                    Fly Over                 Me (this bit repeats x8)

e|----------------------------------------------------|-----------------------|
B|----------------------------------------------------|-----------------------|
G|-13----13----11----11------11----11-----------------|-----------------------|
D|---0-0---0-0---0-0---0-0---------------14----14-----|-14--------------------|
A|-----------------------------0-0---0-0---0-0---0-0--|----11-------x8--------|
E|----------------------------------------------------|-------0---------------|


SECOND VERSE


 Placed you in,                 Flannel Coat, 

e|-----------------------------|----------------------------------------------|
B|-----------------------------|----------------------------------------------|
G|-----------------------------|----------------------------------------------|
D|-13----13------11-----11-----|-13-----13-----11-----11----------------------|
A|---0-0----0-0-----0-0----0-0-|----0-0----0-0----0-0----0-0------------------|
E|-----------------------------|----------------------------------------------|

  Months Fly By.

e|---------------------------------------------------------------------------|
B|---------------------------------------------------------------------------|
G|-------------------------11---11-------------------------------------------|
D|-13----13----14----14----------------14----14------------------------------|
A|---11----11----11----11----11---11-----11----11----------------------------|
E|-----0-----0-----0-----0-----0----0------0-----0---------------------------|

  Grow your Bones,              Feathers Skin. 

e|-----------------------------|----------------------------------------------|
B|-----------------------------|----------------------------------------------|
G|-----------------------------|----------------------------------------------|
D|-13----13------11-----11-----|-13-----13-----11-----11----------------------|
A|---0-0----0-0-----0-0----0-0-|----0-0----0-0----0-0----0-0------------------|
E|-----------------------------|----------------------------------------------|

  Bible-black, By and By.

e|---------------------------------------------------------------------------|
B|---------------------------------------------------------------------------|
G|-------------------------11---11------13----13-----------------------------|
D|-13----13----14----14------------------------------------------------------|
A|---11----11----11----11----11---11-----11----11----------------------------|
E|-----0-----0-----0-----0-----0----0------0-----0---------------------------|

  You will,  Spread your wings   One Day, Fly Over         Me (this bit repeats x8)
  (Repeat this TWICE this time) (Also Repeat this TWICE)
e|-----------------------------|--------------------------|-----------------------|
B|-----------------------------|--------------------------|-----------------------|
G|-13----13----11----11--------|-11----11-----------------|-----------------------|
D|---0-0---0-0---0-0---0-0-----|-------------14----14-----|-14--------------------|
A|-----------------------------|---0-0---0-0---0-0---0-0--|----11-------x8--------|
E|-----------------------------|--------------------------|-------0---------------|


BRIDGE/OUTRO

  Fly Over,                             

e|---------------------------------------------------------------|
B|---------------------------------------------------------------|
G|-13------13------13------13------11------11------9------9------|
D|---11-11---11-11---11-11---11-11---11-11---11-11--11-11--11-11-|
A|---------------------------------------------------------------|
E|---------------------------------------------------------------|

  Fly Over,
e|---------------------------------------------------------------|
B|---------------------------------------------------------------|
G|-14----14----14----14----13----13----11----11------------------|
D|---11----11----11----11----11----11----11----11----------------|
A|-----0-----0-----0-----0-----0-----0-----0-----0---------------|
E|---------------------------------------------------------------|

 Me....                                   Over Me

e|---------------------------------------|----------------------------------------------|
B|---------------------------------------|----------------------------------------------|
G|-13---13---13---13---11---11---9---9---|-11----11----11----11----9----9----8----8-----|
D|---9----9----9----9----9----9---9---9--|---9-9---9-9---9-9---9-9--9-9--9-9--9-9--9-9--|
A|---------------------------------------|----------------------------------------------|
E|----0----0----0----0----0----0---0---0-|----------------------------------------------|

            ..Fly Over                              ..Fly Over

e|-----------------------------------------|------------------------------------|
B|-------------------------------7----7----|------------------------------------|
G|-8----8----8----8----9----9--------------|-9---9---9---9---11---11---9---9----|
D|--6-6--6-6--6-6--6-6--6-6--6-6--6-6--6-6-|--7---7---7---7----7----7---7---7---|
A|-----------------------------------------|---0---0---0---0----0----0---0---0--|
E|-----------------------------------------|------------------------------------|

  Me... ( Just  plays out until the end)

e|---------|------|----------------------------------------|
B|---------|------|----------------------------------------|
G|-9-------|------|----------------------------------------|
D|--6------|--OR--|----14----------------------------------|
A|---------|------|------11--------------------------------|
E|---0-----|------|--------0-------------------------------|            
Submit corrections


        As The Crow Flies lessons Hard to play? Try these video lessons and learn fast As The Crow Flies lessons
        
↑ Back to top | Tablatures and chords for acoustic guitar and electric guitar, ukulele, drums are parodies/interpretations of the original songs. You may use it for private study, scholarship, research or language learning purposes only