» » »

Thrice - All Thats Left Tabs

Artists:  A B C D E F G H I J K L M N O P Q R S T U V W X Y Z # 

All Thats Left Tabs

(ver. 1) Click to play this song!
Thrice
 Rating:
4/5 (4 votes)

 All Thats Left lessons Tabs too difficult? Try these video lessons and learn fast
 
                (Guitar)
                                         ALL THAT'S LEFT - Thrice


Key:
/ - Slide up
\ - Slide down
h - Hammer on
p - Pull-off
^ - Bend
* - Harmonic
~ - Sustain
.p.m. - Palm mute

Tuning:
D Standard Drop C

Guitar2

Intro
e|---------------------------------------------------------------------------------------|
B|---------------------------------------------------------------------------------------|
G|---------------------------------------------------------------------------------------|
D|--7-7-7-7-7-7-7-7--7-7-7-7-7-7-7-7--7-7-7-7-7-7-7-7--7-7-7-7-7-7-7-7--7-7-7-7-7-7-7-7--|
A|--7-7-7-7-7-7-7-7--5-5-5-5-5-5-5-5--3-3-3-3-3-3-3-3--5-5-5-5-5-5-5-5--7-7-7-7-7-7-7-7--|
E|--7-7-7-7-7-7-7-7--5-5-5-5-5-5-5-5--3-3-3-3-3-3-3-3--5-5-5-5-5-5-5-5--7-7-7-7-7-7-7-7--|

e|----------------------------------------------------------------------|
B|----------------------------------------------------------------------|
G|----------------------------------------------------------------------|
D|--7-7-7-7-7-7-7-7--7-7-7-7-7-7-7-7--7-7-7-7-7-7-7-7--7-7-7-7-7-7-7-7--|
A|--5-5-5-5-5-5-5-5--3-3-3-3-3-3-3-3--5-5-5-5-5-5-5-5--7-7-7-7-7-7-7-7--|
E|--5-5-5-5-5-5-5-5--3-3-3-3-3-3-3-3--5-5-5-5-5-5-5-5--7-7-7-7-7-7-7-7--|

Verse
e|---------------------------------------------------------------------------------------------------------|
B|---------------------------------------------------------------------------------------------------------|
G|-------14-14-------12-12-------10-10-------------------------14-14-------12-12-------10-10--17-17-17-17--|
D|--7-7---------7-7---------7-7---------5h7-7--5h7-7-7--5h7-7---------7-7---------7-7----------------------|
A|--7-7--12-12--7-7--10-10--7-7---8--8--5h7-7--5h7-7-7--5h7-7--12-12--7-7--10-10--7-7---8--8--15-15-15-15--|
E|--7-7---------7-7---------7-7---------5h7-7--5h7-7-7--5h7-7---------7-7---------7-7----------------------|

e|---------------------------------------------------------------------------------------------------------|
B|---------------------------------------------------------------------------------------------------------|
G|--16-16-16-16-------14-14-------12-12-------10-10-------------------------14-14-------12-12-------10-10--|
D|---------------7-7---------7-7---------7-7---------5h7-7--5h7-7-7--5h7-7---------7-7---------7-7---------|
A|--14-14-14-14--7-7--12-12--7-7--10-10--7-7---8--8--5h7-7--5h7-7-7--5h7-7--12-12--7-7--10-10--7-7---8--8--|
E|---------------7-7---------7-7---------7-7---------5h7-7--5h7-7-7--5h7-7---------7-7---------7-7---------|

e|---------------------------|
B|---------------------------|
G|--17-17-17-17\16-16-16-16--|
D|---------------------------|
A|--15-15-15-15\14-14-14-14--|
E|---------------------------|

Chorus
e|------------------------------------------------------------------------------------------------------------|
B|------------------------------------------------------------------------------------------------------------|
G|------------------------------------------------------------------------------------------------------------|
D|--3-3-3-3-3-3--5-5-5-5-5-5h7-7-7-7-7-7-7-7-7-7-7-7--3-3-3-3-3-3--5-5-5-5-5-5--7-7-7-7--5h7-7--5h7-7--5h7-7--|
A|--3-3-3-3-3-3--5-5-5-5-5-5h7-7-7-7-7-7-7-7-7-7-7-7--3-3-3-3-3-3--5-5-5-5-5-5--7-7-7-7--5h7-7--5h7-7--5h7-7--|
E|--3-3-3-3-3-3--5-5-5-5-5-5h7-7-7-7-7-7-7-7-7-7-7-7--3-3-3-3-3-3--5-5-5-5-5-5--7-7-7-7--5h7-7--5h7-7--5h7-7--|

e|-------------------------------------------------------------------------------|
B|-------------------------------------------------------------------------------|
G|--5-5-5-5-5-5--7-7-7-7-7-7-----------------------------------------------------|
D|--5-5-5-5-5-5--7-7-7-7-7-7--3-3-3-3-3-3-3-3-3-3-3-3--3-3-3-3-3-3--5-5-5-5-5-5--|
A|--3-3-3-3-3-3--5-5-5-5-5-5--3-3-3-3-3-3-3-3-3-3-3-3--3-3-3-3-3-3--5-5-5-5-5-5--|
E|----------------------------3-3-3-3-3-3-3-3-3-3-3-3--3-3-3-3-3-3--5-5-5-5-5-5--|

Bridge
e|----------------------------------------|
B|----------------------------------------|
G|----------------------------------------|
D|--6-6-6-6-6-6-6-6-6-6-6-6--7~~~~~~~~~~--|
A|--6-6-6-6-6-6-6-6-6-6-6-6--7~~~~~~~~~~--|
E|--6-6-6-6-6-6-6-6-6-6-6-6--7~~~~~~~~~~--|

e|--------------------------------------------------------------------------------------------------|
B|--------------------------------------------------------------------------------------------------|
G|-------14-14-------12-12-------10-10-------12-12-------14-14-------12-12-------10-10-------12-12--|
D|--7-7---------5-5---------3-3---------5-5---------7-7---------5-5---------3-3---------5-5---------|
A|--7-7--12-12--5-5--10-10--3-3---8--8--5-5--10-10--7-7--12-12--5-5--10-10--3-3---8--8--5-5--10-10--|
E|--7-7---------5-5---------3-3---------5-5---------7-7---------5-5---------3-3---------5-5---------|

e|--------------------------------------------------------------------------------------------------|
B|--------------------------------------------------------------------------------------------------|
G|-------14-14-------12-12-------10-10-------12-12-------14-14-------12-12-------10-10-------12-12--|
D|--7-7---------5-5---------3-3---------5-5---------7-7---------5-5---------3-3---------5-5---------|
A|--7-7--12-12--5-5--10-10--3-3---8--8--5-5--10-10--7-7--12-12--5-5--10-10--3-3---8--8--5-5--10-10--|
E|--7-7---------5-5---------3-3---------5-5---------7-7---------5-5---------3-3---------5-5---------|

e|------------------------------|
B|------------------------------|
G|------------------------------|
D|--5--5-5-5-5-5-5--5-5--5-5-5--|
A|--5--5-5-5-5-5-5--5-5--5-5-5--|
E|--5--5-5-5-5-5-5--5-5--5-5-5--|
       ....p.m....       .p.m.

Outro
e|------------------------------------------------------------------------------------------------------------|
B|------------------------------------------------------------------------------------------------------------|
G|------------------------------------------------------------------------------------------------------------|
D|--3-3-3-3-3-3--5-5-5-5-5-5h7-7-7-7-7-7-7-7-7-7-7-7--3-3-3-3-3-3--5-5-5-5-5-5--7-7-7-7--5h7-7--5h7-7--5h7-7--|
A|--3-3-3-3-3-3--5-5-5-5-5-5h7-7-7-7-7-7-7-7-7-7-7-7--3-3-3-3-3-3--5-5-5-5-5-5--7-7-7-7--5h7-7--5h7-7--5h7-7--|
E|--3-3-3-3-3-3--5-5-5-5-5-5h7-7-7-7-7-7-7-7-7-7-7-7--3-3-3-3-3-3--5-5-5-5-5-5--7-7-7-7--5h7-7--5h7-7--5h7-7--|

e|-------------------------------------------------------------------------------------------------------|
B|-------------------------------------------------------------------------------------------------------|
G|--5-5-5-5-5-5--7-7-7-7-7-7-----------------------------------------------------------------------------|
D|--5-5-5-5-5-5--7-7-7-7-7-7--3-3-3-3-3-3-3-3-3-3-3-3--3-3-3-3-3-3--5-5-5-5-5-5h7-7-7-7-7-7-7-7-7-7-7-7--|
A|--3-3-3-3-3-3--5-5-5-5-5-5--3-3-3-3-3-3-3-3-3-3-3-3--3-3-3-3-3-3--5-5-5-5-5-5h7-7-7-7-7-7-7-7-7-7-7-7--|
E|----------------------------3-3-3-3-3-3-3-3-3-3-3-3--3-3-3-3-3-3--5-5-5-5-5-5h7-7-7-7-7-7-7-7-7-7-7-7--|

e|------------------------------------------------------------------------------------------------------------|
B|------------------------------------------------------------------------------------------------------------|
G|----------------------------------------------------------5-5-5-5-5-5/7-7-7-7-7-7---------------------------|
D|--3-3-3-3-3-3--5-5-5-5-5-5--7-7-7-7--5h7-7--5h7-7--5h7-7--5-5-5-5-5-5/7-7-7-7-7-7--3-3-3-3-3-3-3-3-3-3-3-3--|
A|--3-3-3-3-3-3--5-5-5-5-5-5--7-7-7-7--5h7-7--5h7-7--5h7-7--3-3-3-3-3-3/5-5-5-5-5-5--3-3-3-3-3-3-3-3-3-3-3-3--|
E|--3-3-3-3-3-3--5-5-5-5-5-5--7-7-7-7--5h7-7--5h7-7--5h7-7---------------------------3-3-3-3-3-3-3-3-3-3-3-3--|

e|----------------------------------------------------------------------------------------------------|
B|----------------------------------------------------------------------------------------------------|
G|----------------------------------------------------------------------------------------------------|
D|--3-3-3-3-3-3--5-5-5-5-5-5--3-3-3-3-3-3--5-5-5-5-5-5--3-3-3-3-3-3--6-6-6-6-6-6-6-6-6-6-6-6-6-6\\\\--|
A|--3-3-3-3-3-3--5-5-5-5-5-5--3-3-3-3-3-3--5-5-5-5-5-5--3-3-3-3-3-3--6-6-6-6-6-6-6-6-6-6-6-6-6-6\\\\--|
E|--3-3-3-3-3-3--5-5-5-5-5-5--3-3-3-3-3-3--5-5-5-5-5-5--3-3-3-3-3-3--6-6-6-6-6-6-6-6-6-6-6-6-6-6\\\\--|
            
Submit corrections


        All Thats Left lessons Hard to play? Try these video lessons and learn fast All Thats Left lessons
        
↑ Back to top | Tablatures and chords for acoustic guitar and electric guitar, ukulele, drums are parodies/interpretations of the original songs. You may use it for private study, scholarship, research or language learning purposes only