» » »

Thrice - All Eyes Tabs

Artists:  A B C D E F G H I J K L M N O P Q R S T U V W X Y Z # 

All Eyes Tabs

(ver. 2) Click to play this song!
Thrice
 Rating:
4/5 (4 votes)

 All Eyes lessons Tabs too difficult? Try these video lessons and learn fast
 
                ~ = let ring

 Intro: (guitar one, played throughout the intro)
e|------5-3--------5-3-------5-3-------5-3-----------------------------------|
B|--3-3--------3-3-------3-3-------3-3---------------------------------------|
G|--0-0--------0-0-------0-0-------0-0---------------------------------------|
D|---------------------------------------------------------------------------|
A|---------------------------------------------------------------------------|
E|---------------------------------------------------------------------------|

 Intro: (guitar two)
e|---------------------------------------------------------------------------|
B|---------------------------------------------------------------------------|
G|--5~~~~~~~--7~~~~~~~~~-----------------------------------------------------|
D|--5~~~~~~~--7~~~~~~~~~----5-5-55--5-5-55--2-2-22--2-2-22-------------------|
A|--3~~~~~~~--5~~~~~~~~~----5-5-55--5-5-55--2-2-22--2-2-22-------------------|
E|--------------------------3-3-33--3-3-33--0-0-00--0-0-00-------------------|

 (guitar two continued):
e|---------------------------------------------------------------------------|
B|---------------------------------------------------------------------------|
G|--5-5-55--5-5-55--7-7-77--7-7-77-------------------------------------------|
D|--5-5-55--5-5-55--7-7-77--7-7-77-------------------------------------------|
A|--3-3-33--3-3-33--5-5-55--5-5-55-------------------------------------------|
E|---------------------------------------------------------------------------|

 Verse: (timing not tabbed out)
e|---------------------------------------------------------------------------|
B|---------------------------------------------------------------------------|
G|--99999999------------------------------------------------------777777777--|
D|--99999999-12-12-12-12-10-10-10-10-10-10--7-7-7--55555555555555-777777777--|
A|--77777777-12-12-12-12-10-10-10-10-10-10--7-7-7--55555555555555-555555555--|
E|-----------10-10-10-10--8--8--8--8--8--8--5-5-5--33333333333333------------|
   "the weight of the world is on my shoulders.."

e|---------------------------------------------------------------------------|
B|---------------------------------------------------------------------------|
G|--99999999------------------------------------------------------777777777--|
D|--99999999-12-12-12-12-10-10-10-10-10-10--7-7-7--55555555555555-777777777--|
A|--77777777-12-12-12-12-10-10-10-10-10-10--7-7-7--55555555555555-555555555--|
E|-----------10-10-10-10--8--8--8--8--8--8--5-5-5--33333333333333------------|
   "and it's not that i'm growing callous.."

e|---------------------------------------------------------------------------|
B|---------------------------------------------------------------------------|
G|--5555555555555555----------------------7--7--7----------------------------|
D|--5555555555555555-------------5--5--5--7--7--7----------------------------|
A|--3333333333333333-------------5--5--5--5--5--5----------------------------|
E|-------------------------------3--3--3-------------------------------------|
   "so drop your expectations.."         

e|---------------------------------------------------------------------------|
B|---------------------------------------------------------------------------|
G|--5555555555555555--------------------7777777777777------------------------|
D|--5555555555555555------555555555555--7777777777777------------------------|
A|--3333333333333333------555555555555--5555555555555------------------------|
E|------------------------333333333333---------------------------------------|
   "let go of any dependencies.."


e|---------------------------------------------------------------------------|
B|---------------------------------------------------------------------------|
G|--5555555555555555555555--------------7--7--7--5555555555-77777777777------|
D|--5555555555555555555555-----5--5--5--7--7--7--5555555555-77777777777------|
A|--3333333333333333333333-----5--5--5--5--5--5--3333333333-55555555555------|
E|-----------------------------3--3--3---------------------------------------|
   "forget your disapproval.."                   "cause i’m setting myself.."

 (repeat intro)
 (repeat verse)

 then there's this: (played 4x)
e|---------------------------------------------------------------------------|
B|---------------------------------------------------------------------------|
G|--------------7777777777--9999999999--5555555555---------------------------|
D|--5555555555--7777777777--9999999999--5555555555---------------------------|
A|--5555555555--5555555555--7777777777--3333333333---------------------------|
E|--3333333333---------------------------------------------------------------|
   "all eyes on me.." 

 Outro: (repeat intro)
            
Submit corrections


        All Eyes lessons Hard to play? Try these video lessons and learn fast All Eyes lessons
        
↑ Back to top | Tablatures and chords for acoustic guitar and electric guitar, ukulele, drums are parodies/interpretations of the original songs. You may use it for private study, scholarship, research or language learning purposes only