» » »

Thom Yorke - The Present Tense Tabs

Artists:  A B C D E F G H I J K L M N O P Q R S T U V W X Y Z # 

The Present Tense Tabs

(ver. 1) Click to play this song!
Thom Yorke
 Rating:
4.4/5 (7 votes)

 The Present Tense lessons Tabs too difficult? Try these video lessons and learn fast
 
                                           The Present Tense
                             -Thom Yorke-

VERSE

e|--------------------------------------------------------------------------------------|
B|-----11------11------11-----11--------11---------11-----------------------8------8----|
G|------------------------------------------------------------8-----8-------------------|x4
D|--------------------------------------------------------------------------------------|
A|--10------10-----10------10-------10--------10----------------------------------------|
E|--------------------------------------------------------8------8-------8------8-------|

e|-----------------------------------------------------------------------------|
B|-----8------8------8-----8--------8-----6------6-------6---------------------|
G|-----------------------------------------------------------------------------|x2
D|-----------------------------------------------------------------------------|
A|--6------6-----6------6-------6-------5------5-----5-------------------------|
E|-----------------------------------------------------------------------------|

e|--------------------------------------------------------------------------------------|
B|-----11------11------11-----11--------11---------11-----------------------8------8----|
G|------------------------------------------------------------8-----8-------------------|x2
D|--------------------------------------------------------------------------------------|
A|--10------10-----10------10-------10--------10----------------------------------------|
E|--------------------------------------------------------8------8-------8------8-------|


e|-----------------------------------------------------------------------------|
B|-----8------8------8-----8--------8-----6------6-------6---------------------|
G|-----------------------------------------------------------------------------|
D|-----------------------------------------------------------------------------|
A|--6------6-----6------6-------6-------5------5-----5-------------------------|
E|-----------------------------------------------------------------------------|


e|-----------------------------------------------------------------------------|
B|-----8------8------8-----8--------8------8------8-------6-----6-------6------|
G|-----------------------------------------------------------------------------|
D|-----------------------------------------------------------------------------|
A|--6------6-----6------6-------6-------5------5-----5------5-------5----------|
E|-----------------------------------------------------------------------------|

e|-----------------------------------------------------------------------------|
B|-----8------8------8-----8--------8-----6------6-------6---------------------|
G|-----------------------------------------------------------------------------|
D|-----------------------------------------------------------------------------|
A|--6------6-----6------6-------6-------5------5-----5-------------------------|
E|-----------------------------------------------------------------------------|

repeat, then end on this:


e|-----------------------------------------------------------------------------|
B|-----8------8------6-----6--------6------------------------------------------|
G|-----------------------------------------------------------------------------|
D|-----------------------------------------------------------------------------|
A|--8------8-----8------8-------8----------------------------------------------|
E|-----------------------------------------------------------------------------|


Interlude:

e|------------------------------------------------------------------|
B|------------------------------------------------------------------|
G|---3----3----3----3----3-------2----2---2----7----7----7---7------|
D|------------------------------------------------------------------|
A|------------------------------------------------------------------|
E|-3---3----3-----3----3------1----1----1----6---6----6---6---------|

e|------------------------------------------------------------------|
B|---8--8--8--8--8------5--5---5--5------11---11--11--11-----10--10-|
G|------------------------------------------------------------------|
D|------------------------------------------------------------------|
A|-6--6--6--6--6-----3---3--3--3------10---10---10--10-----8----8---|
E|------------------------------------------------------------------|

in you I'm lost...
e|-----------------------------------------------------------------------------|
B|--------------------------8---8---8---8-----5----5----5----------------------|
G|-----7----7---7---7----------------------------------------------------------|
D|-----------------------------------------------------------------------------|
A|-----------------------6----6---6--6------3----3----3------------------------|
E|--6----6----6---6------------------------------------------------------------|

I won't turn round...
e|--------------------------------------------------------------------------------|
B|------11----11-----11---11-------------------10--10--10----------------8--8--8--|
G|------------------------------8----8---8-------------------7--7--7--------------|
D|--------------------------------------------------------------------------------|
A|--10----10-----10----10--------------------8---8---8-----5--5--5----7--7--7-----|
E|----------------------------8----8---8------------------------------------------|

Got stuck around that part, may work on it later, or hopefully you will correct/add to 
 The very last part might be wrong
            
Submit corrections


        The Present Tense lessons Hard to play? Try these video lessons and learn fast The Present Tense lessons
        
↑ Back to top | Tablatures and chords for acoustic guitar and electric guitar, ukulele, drums are parodies/interpretations of the original songs. You may use it for private study, scholarship, research or language learning purposes only