» » »

Thom Yorke - Suspirium Tabs

Artists:  A B C D E F G H I J K L M N O P Q R S T U V W X Y Z # 

Suspirium Tabs

(ver. 1) Click to play this song!
Thom Yorke
 Rating:
4.3/5 (29 votes)

 Suspirium lessons Tabs too difficult? Try these video lessons and learn fast
 
                Main Riff (Right Hand Piano, Melody)

e|-----------9-----------9--------------14--------------14--------------17--------------17--|
B|--------9-----------9-------------14--------------14--------------17--------------17------|
G|--9--9--------9--9--------15--15----------15--15----------18--18----------18--18----------|
D|------------------------------------------------------------------------------------------|
A|------------------------------------------------------------------------------------------|
E|------------------------------------------------------------------------------------------|

e|-----------9-----------9-----------9-----------9--------------14--------------14--|
B|--------9-----------9-----------7-----------7-------------14--------------14------|
G|--9--9--------9--9--------8--8--------8--8--------15--15----------15--15----------|
D|----------------------------------------------------------------------------------|
A|----------------------------------------------------------------------------------|
E|----------------------------------------------------------------------------------|

e|--------------17--------------17-----------9-----------9-----------9-----------9--|
B|----------17--------------17------------9-----------9-----------9-----------9-----|
G|--18--18----------18--18----------9--9--------9--9--------9--9--------9--9--------|
D|----------------------------------------------------------------------------------|
A|----------------------------------------------------------------------------------|
E|----------------------------------------------------------------------------------|

Main Riff (Left Hand Piano, Bass)

e|------------------------------------------------------------------------------------------------|
B|------------------------------------------------------------------------------------------------|
G|------------------------------------------------------------------------------------------------|
D|--------6-----------6-----------10-----------11-----------11-------------14--------------14-----|
A|--4--4--------4--4--------8--8---------9--9---------9--9---------12--12----------12--12---------|
E|------------------------------------------------------------------------------------------------|

e|------------------------------------------------------------------------------|
B|------------------------------------------------------------------------------|
G|------------------------------------------------------------------------------|
D|--------6-----------6-----------4------------4------------11-----------11-----|
A|--4--4--------4--4--------2--2---------2--2---------9--9---------9--9---------|
E|------------------------------------------------------------------------------|

e|--------------------------------------------------------------------------------|
B|--------------------------------------------------------------------------------|
G|--------------------------------------------------------------------------------|
D|----------14-------------14-----------6-----------6-----------6-----------6-----|
A|--12--12---------12--12---------4--4--------4--4--------4--4--------4--4--------|
E|--------------------------------------------------------------------------------|
            
Submit corrections


        Suspirium lessons Hard to play? Try these video lessons and learn fast Suspirium lessons
        
↑ Back to top | Tablatures and chords for acoustic guitar and electric guitar, ukulele, drums are parodies/interpretations of the original songs. You may use it for private study, scholarship, research or language learning purposes only