» » »

Thom Yorke - Open Again Tabs

Artists:  A B C D E F G H I J K L M N O P Q R S T U V W X Y Z # 

Open Again Tabs

(ver. 1) Click to play this song!
Thom Yorke
 Rating:
4.3/5 (29 votes)

 Open Again lessons Tabs too difficult? Try these video lessons and learn fast
 
                [First part]
e|--------------------------------------------------------------------------------------| 
B|---8------8------8------8------5------5------5------5------8------8------8------8-----| 
G|--------------------------------------------------------------------------------------|
D|-----8------8------8------8------5------5------5------5------8------8------8-------8--|
A|-0------0------0------0------0------0------0------0------0------0------0------0-------|
E|--------------------------------------------------------------------------------------|

e|------------------------------------------------------------|
B|---8------8------8------8------6------6------6------6-------|
G|------------------------------------------------------------|  x8
D|-----8------8------8------8------7------7------7------7-----|
A|-7------7------7------7------5------5------5------5---------|
E|------------------------------------------------------------|

[Then]
e|--------------------------------------------------------------------------------------------|
B|---11-------11-------11-------11-------8------8-----5------5------2------2------2------2----|
G|--------------------------------------------------------------------------------------------|
D|------11-------11-------11-------11------8-----8------5------5------2------2------2------2--|
A|-0--------0--------0--------0--------0------0-----0------0------0------0------0------0------|
E|--------------------------------------------------------------------------------------------|

e|-------------------------------------------------------------------------------------|
B|---5------5------5------5------3------3------3------3------3------3------3------0----|
G|-------------------------------------------------------------------------------------|
D|-----5------5------5------5------3------3------3------3------3------3------3------3--|
A|-0------0------0------0----------------------------------0------0------0------0------|
E|-----------------------------3------3------3------3----------------------------------|

e|------------------------------|
B|---2------2------2------2-----|
G|------------------------------|
D|-----2------2------2------2---|
A|-0------0------0------0-------|
E|------------------------------|

[Then come back to the first part]
e|--------------------------------------------------------------------------------------| 
B|---8------8------8------8------5------5------5------5------8------8------8------8-----| 
G|--------------------------------------------------------------------------------------|
D|-----8------8------8------8------5------5------5------5------8------8------8-------8--|
A|-0------0------0------0------0------0------0------0------0------0------0------0-------|
E|--------------------------------------------------------------------------------------|

e|------------------------------------------------------------|
B|---8------8------8------8------6------6------6------6-------|
G|------------------------------------------------------------|  x2
D|-----8------8------8------8------7------7------7------7-----|
A|-7------7------7------7------5------5------5------5---------|
E|------------------------------------------------------------|
            
Submit corrections


        Open Again lessons Hard to play? Try these video lessons and learn fast Open Again lessons
        
↑ Back to top | Tablatures and chords for acoustic guitar and electric guitar, ukulele, drums are parodies/interpretations of the original songs. You may use it for private study, scholarship, research or language learning purposes only