» » »

Thom Yorke - Ingenue Tabs

Artists:  A B C D E F G H I J K L M N O P Q R S T U V W X Y Z # 

Ingenue Tabs

(ver. 1) Click to play this song!
Thom Yorke
 Rating:
2.8/5 (29 votes)

 Ingenue lessons Tabs too difficult? Try these video lessons and learn fast
 
                Tuning: Standard (Capo on 4th w/e just stick it where you are happiest to sing with it)

Intro:
e|1-0------------------------------------------------------------------------|
B|----3-1---1---1-------------------0----------------------------------------|
G|--------2---0---0---------------0------2-----------------------------------|
D|--------3---2---2-----2-3-0---2----------3---------------------------------|
A|----------------3-----------3-3---2------5---------------------------------|
E|------------------------------3---3-(3)------------------------------------|

Verse: (basically just the bottom notes from the intro but in a different rhythm and mess about with it) 
e|---------------------------------------------------------------------------|
B|-----------------1---1-----------------------------------------------------|
G|--------2--------2---0---0-------------------------------------------------|
D|2---0---3--------3---2---2----2-3-2-0--------------------------------------|
A|3---2---5----------------3------------3------------------------------------|
E|3---3----------------------------------------------------------------------|

Chorus: 
e|-------------------1-------------------------------------------------------|
B|1--1--1------1--0--1-------------------------------------------------------|
G|0--0--2------2--0--2-------------------------------------------------------|
D|2--0--3------3--2--0-------------------------------------------------------|
A|0-(2)-3------3--2----------------------------------------------------------|
E|---3-----------(0)---------------------------------------------------------|

Outro:
e|1--0------0---------------0------------------------------------------------|
B|1--1--1-------1p0-------0--------------------------------------------------|
G|2--2--2-----------2---2----------------------------------------------------|
D|0--0--2-------------2------------------------------------------------------|
A|------0-----0---------------0----------------------------------------------|
E|---------------------------------------------------------------------------|            
Submit corrections


        Ingenue lessons Hard to play? Try these video lessons and learn fast Ingenue lessons
        
↑ Back to top | Tablatures and chords for acoustic guitar and electric guitar, ukulele, drums are parodies/interpretations of the original songs. You may use it for private study, scholarship, research or language learning purposes only