» » »

Thom Yorke - Desert Island Discs Live Tabs

Artists:  A B C D E F G H I J K L M N O P Q R S T U V W X Y Z # 

Desert Island Discs Live Tabs

(ver. 1) Click to play this song!
Thom Yorke
 Rating:
2.8/5 (28 votes)

 Desert Island Discs Live  lessons Tabs too difficult? Try these video lessons and learn fast
 
                Tuning: Drop D - Capo on 5th fret

Main riff:
e|--------------------------------------------------------------------------|
B|-----------------------0--0-0-0-0-0---------------------------------------|
G|--------5h7------------0--0-0-0-0-0---------------------------------------|
D|--------0----5h7p5p0---0--0-0-0-0-0---------------------------------------|
A|--------0----0------------3-3-3-3-2---------------------------------------|
D|-0------0----0-------0-5--0-0-0-0-0---------------------------------------|

Riff II (Only played in the intro)
e|--------------------------------------------------------------------------|
B|-----------------------0-0-0-0--------------------------------------------|
G|--------5h7------------0-0-0-0--------------------------------------------|
D|--------0----5h7p5p0---0-0-0-0--------------------------------------------|
A|--------0----0---------2-3-3-3p0------------------------------------------|
D|-0------0----0-------0-0-0-0-0--------------------------------------------|

Riff III (Same as Riff II)
e|--------------------------------------------------------------------------|
B|--------------------------------------------------------------------------|
G|--------5h7---------------------------------------------------------------|
D|--------0----5h7p5p0-------2-2h3p2p0--------------------------------------|
A|--------0----0---------2-3------------------------------------------------|
D|-0------0----0-------0----------------------------------------------------|

Riff IV
e|--------------------------------------------------------------------------|
B|--------------------------------------------------------------------------|
G|--------3h5------------0--0-0-0-0-0---------------------------------------|
D|--------0----3h5p3p0---0--0-0-0-0-0---------------------------------------|
A|--------0----0---------3--1-1-1-1-0---------------------------------------|
D|-0------0----0---------0--0-0-0-0-0---------------------------------------|

Listen to the song to hear the strumming pattern for these chords:
(The low D isn't played at every chord, but just play what sounds right to you ;) )

e|---------------------------------------------------------------------------|
B|-3-----3-3----3---3-3------------------------------------------------------|
G|-2-----0-0----0---0-0------------------------------------------------------|
D|-0-----2-3----0---2-3------------------------------------------------------|
A|-0-----0-0----1---0-0------------------------------------------------------|
D|-0-----0-0----0---0-0------------------------------------------------------|
            
Submit corrections


        Desert Island Discs Live  lessons Hard to play? Try these video lessons and learn fast Desert Island Discs Live  lessons
        
↑ Back to top | Tablatures and chords for acoustic guitar and electric guitar, ukulele, drums are parodies/interpretations of the original songs. You may use it for private study, scholarship, research or language learning purposes only