» » »

Thirteen Senses - Into The Fire Tabs

Artists:  A B C D E F G H I J K L M N O P Q R S T U V W X Y Z # 

Into The Fire Tabs

(ver. 3) Click to play this song!
Thirteen Senses
 Rating:
4.4/5 (7 votes)

 Into The Fire lessons Tabs too difficult? Try these video lessons and learn fast
 
                ----------------------------------------------------------------------------
                      Into The Fire - Thirteen Senses
----------------------------------------------------------------------------
Tuning: EADGBe (standard)

there have been no full tabs for this song yet, so heres my attempt. it involved a bit 

the piano part has been tabbed for guitar as well, so there are two guitar parts. timing 
a bit off, listen to the song (pointless advice, who is trying to learn this song 
listening to it anyway?)

intro:
guitar one:
 e|-0---0---3---3---|-2---2---0---0---|-0---0---3---3---|-2---2---0---0---|
 B|-0---0---3---3---|-3---3---1---1---|-0---0---3---3---|-3---3---1---1---|
 G|-0---0---0---0---|-2---2---2---2---|-0---0---0---0---|-2---2---2---2---|
 D|-2---2---0---0---|-0---0-0-2---2---|-2---2---0---0---|-0---0-0-2---2---|
 A|-2---2---2---2---|---------0---0-0-|-2---2---2---2---|---------0-0-0-0-|
 E|-0---0-0-3---3-3-|-----------------|-0---0-0-3---3-3-|-----------------|
guitar two:
 e|-----------------|-----------------|-----------------|-----------------|
 B|-----------------|-----------------|-----------------|-----------------|
 G|-----------------|-----------------|-----------------|-----------------|
 D|-----------------|-----------------|-----------------|-----------------|
 A|-----------------|-----------------|-----------------|-----------------|
 E|-----------------|-----------------|-----------------|-----------------|

guitar one:
 e|-0---0---3---3---|-2---2---0---0---|-0---0---3---3---|-2---2---0---0---|
 B|-0---0---3---3---|-3---3---1---1---|-0---0---3---3---|-3---3---1---1---|
 G|-0---0---0---0---|-2---2---2---2---|-0---0---0---0---|-2---2---2---2---|
 D|-2---2---0---0---|-0-0-0-0-2---2---|-2---2---0---0---|-0-0-0-0-2---2---|
 A|-2---2---2---2---|---------0-0-0-0-|-2---2---2---2---|---------0-0-0-0-|
 E|-0-0-0-0-3-3-3-3-|-----------------|-0-0-0-0-3-3-3-3-|-----------------|
guitar two:
 e|-----------------|-----------------|-----------------|-----------------|
 B|-----------------|-----------------|-----------------|-----------------|
 G|-----------------|-----------------|-----------------|-----------------|
 D|-----------------|-----------------|-----------------|-----------------|
 A|-----------------|-----------------|-----------------|-----------------|
 E|-----------------|-----------------|-----------------|-----------------|

verse one:
guitar one:
 e|-0---0---3---3---|-2---2---0---0---|-0---0---3---3---|-2---2---0---0---|
 B|-0---0---3---3---|-3---3---1---1---|-0---0---3---3---|-3---3---1---1---|
 G|-0---0---0---0---|-2---2---2---2---|-0---0---0---0---|-2---2---2---2---|
 D|-2---2---0---0---|-0-0-0-0-2---2---|-2---2---0---0---|-0-0-0-0-2---2---|
 A|-2---2---2---2---|---------0-0-0-0-|-2---2---2---2---|---------0-0-0-0-|
 E|-0-0-0-0-3-3-3-3-|-----------------|-0-0-0-0-3-3-3-3-|-----------------|
guitar two:
 e|-----7-5-----7-7-|-----7-5-----8-7-|-----7-5-----7-5-|-----7-5-----8-7-|
 B|-5-5-----5-5-----|-5-5-----5-5-----|-5-5-----5-5-----|-5-5-----5-5-----|
 G|-----------------|-----------------|-----------------|-----------------|
 D|-----------------|-----------------|-----------------|-----------------|
 A|-----------------|-----------------|-----------------|-----------------|
 E|-----------------|-----------------|-----------------|-----------------|

guitar one:
 e|-0---0---3---3---|-2---2---0---0---|-0---0---3---3---|-2---2---0---0---|
 B|-0---0---3---3---|-3---3---1---1---|-0---0---3---3---|-3---3---1---1---|
 G|-0---0---0---0---|-2---2---2---2---|-0---0---0---0---|-2---2---2---2---|
 D|-2---2---0---0---|-0---0-0-2---2---|-2---2---0---0---|-0---0-0-2---2---|
 A|-2---2---2---2---|---------0---0-0-|-2---2---2---2---|---------0---0-0-|
 E|-0---0-0-3---3-3-|-----------------|-0---0-0-3---3-3-|-----------------|
guitar two:
 e|-----------------|-----------------|-----------------|-----------------|
 B|-----------------|-----------------|-----------------|-----------------|
 G|-----------------|-----------------|-----------------|-----------------|
 D|-----------------|-----------------|-----------------|-----------------|
 A|-----------------|-----------------|-----------------|-----------------|
 E|-----------------|-----------------|-----------------|-----------------|
        come on...     ...put your......fire explain...    ...as i...

guitar one:
 e|-0---0---3---3---|-2---2---0---0---|-0---0---3---3---|-2---2---0---0---|
 B|-0---0---3---3---|-3---3---1---1---|-0---0---3---3---|-3---3---1---1---|
 G|-0---0---0---0---|-2---2---2---2---|-0---0---0---0---|-2---2---2---2---|
 D|-2---2---0---0---|-0-0-0-0-2---2---|-2---2---0---0---|-0-0-0-0-2---2---|
 A|-2---2---2---2---|---------0-0-0-0-|-2---2---2---2---|---------0-0-0-0-|
 E|-0-0-0-0-3-3-3-3-|-----------------|-0-0-0-0-3-3-3-3-|-----------------|
guitar two:
 e|10h12~10-8-------|-----------------|10h12~10-8-------|-----------------|
 B|----------12-10-8|-----------------|----------12-10-8|-----------------|
 G|-----------------|-11~9~-7--9~77-9-|-----------------|-11~9~-7--9~77-9-|
 D|-----------------|-----------------|-----------------|-----------------|
 A|-----------------|-----------------|-----------------|-----------------|
 E|-----------------|-----------------|-----------------|-----------------|
    power...       ...time...  ...senses...        ...up      from one...

chorus:
not sure about the second guitar part, but it sounds good
guitar one:
 e|-0---0-0-0---0-0-|-3---3-3-3---3-3-|-2---2-2-2---2-2-|-0---0-0-0---0-0-|
 B|-0---0-0-0---0-0-|-3---3-3-3---3-3-|-3---3-3-3---3-3-|-1---1-1-1---1-1-|
 G|-0---0-0-0---0-0-|-0---0-0-0---0-0-|-2---2-2-2---2-2-|-2---2-2-2---2-2-|
 D|-2---2-2-2---2-2-|-0---0-0-0---0-0-|-0---0-0-0---0-0-|-2---2-2-2---2-2-|
 A|-2---2-2-2---2-2-|-2---2-2-2---2-2-|-----------------|-0---0-0-0---0-0-|
 E|-0---0-0-0---0-0-|-3---3-3-3---3-3-|-----------------|-----------------|
guitar two:
 e|---------0-------|---------3-------|---------2-------|---------0-------|
 B|-0-----------0---|-3-----------3---|-3-----------3---|-1-----------1---|
 G|-----0-0---------|-----0-0---------|-----2-2---------|-----2-2---------|
 D|-----------------|-----------------|-----------------|-----------------|
 A|-----------------|-----------------|-----------------|-----------------|
 E|-----------------|-----------------|-----------------|-----------------|
        from...    ...spring......to....end

guitar one:
 e|-0---0-0-0---0-0-|-3---3-3-3---3-3-|-2---2-2-2---2-2-|-0---0-0-0---0-0-|
 B|-0---0-0-0---0-0-|-3---3-3-3---3-3-|-3---3-3-3---3-3-|-1---1-1-1---1-1-|
 G|-0---0-0-0---0-0-|-0---0-0-0---0-0-|-2---2-2-2---2-2-|-2---2-2-2---2-2-|
 D|-2---2-2-2---2-2-|-0---0-0-0---0-0-|-0---0-0-0---0-0-|-2---2-2-2---2-2-|
 A|-2---2-2-2---2-2-|-2---2-2-2---2-2-|-----------------|-0---0-0-0---0-0-|
 E|-0---0-0-0---0-0-|-3---3-3-3---3-3-|-----------------|-----------------|
guitar two:
 e|---------0-------|---------3-------|---------2-------|---------0-------|
 B|-0-----------0---|-3-----------3---|-3-----------3---|-1-----------1---|
 G|-----0-0---------|-----0-0---------|-----2-2---------|-----2-2---------|
 D|-----------------|-----------------|-----------------|-----------------|
 A|-----------------|-----------------|-----------------|-----------------|
 E|-----------------|-----------------|-----------------|-----------------|
        from...    ...sin.....waiting...end

verse two:
guitar one:
 e|-0---0---3---3---|-2---2---0---0---|-0---0---3---3---|-2---2---0---0---|
 B|-0---0---3---3---|-3---3---1---1---|-0---0---3---3---|-3---3---1---1---|
 G|-0---0---0---0---|-2---2---2---2---|-0---0---0---0---|-2---2---2---2---|
 D|-2---2---0---0---|-0-0-0-0-2---2---|-2---2---0---0---|-0-0-0-0-2---2---|
 A|-2---2---2---2---|---------0-0-0-0-|-2---2---2---2---|---------0-0-0-0-|
 E|-0-0-0-0-3-3-3-3-|-----------------|-0-0-0-0-3-3-3-3-|-----------------|
guitar two:
 e|-----7-5-----7-7-|-----7-5-----8-7-|-----7-5-----7-5-|-----7-5-----8-7-|
 B|-5-5-----5-5-----|-5-5-----5-5-----|-5-5-----5-5-----|-5-5-----5-5-----|
 G|-----------------|-----------------|-----------------|-----------------|
 D|-----------------|-----------------|-----------------|-----------------|
 A|-----------------|-----------------|-----------------|-----------------|
 E|-----------------|-----------------|-----------------|-----------------|

guitar one:
 e|-0---0---3---3---|-2---2---0---0---|-0---0---3---3---|-2---2---0---0---|
 B|-0---0---3---3---|-3---3---1---1---|-0---0---3---3---|-3---3---1---1---|
 G|-0---0---0---0---|-2---2---2---2---|-0---0---0---0---|-2---2---2---2---|
 D|-2---2---0---0---|-0---0-0-2---2---|-2---2---0---0---|-0---0-0-2---2---|
 A|-2---2---2---2---|---------0---0-0-|-2---2---2---2---|---------0---0-0-|
 E|-0---0-0-3---3-3-|-----------------|-0---0-0-3---3-3-|-----------------|
guitar two:
 e|-----------------|-----------------|-----------------|-----------------|
 B|-----------------|-----------------|-----------------|-----------------|
 G|-----------------|-----------------|-----------------|-----------------|
 D|-----------------|-----------------|-----------------|-----------------|
 A|-----------------|-----------------|-----------------|-----------------|
 E|-----------------|-----------------|-----------------|-----------------|
        come on...     ...put your......fire explain...    ...as i...

guitar one:
 e|-0---0---3---3---|-2---2---0---0---|-0---0---3---3---|-2---2---0---0---|
 B|-0---0---3---3---|-3---3---1---1---|-0---0---3---3---|-3---3---1---1---|
 G|-0---0---0---0---|-2---2---2---2---|-0---0---0---0---|-2---2---2---2---|
 D|-2---2---0---0---|-0-0-0-0-2---2---|-2---2---0---0---|-0-0-0-0-2---2---|
 A|-2---2---2---2---|---------0-0-0-0-|-2---2---2---2---|---------0-0-0-0-|
 E|-0-0-0-0-3-3-3-3-|-----------------|-0-0-0-0-3-3-3-3-|-----------------|
guitar two:
 e|10h12~10-8-------|-----------------|10h12~10-8-------|-----------------|
 B|----------12-10-8|-----------------|----------12-10-8|-----------------|
 G|-----------------|-11~9~-7--9~77-9-|-----------------|-11~9~-7--9~77-9-|
 D|-----------------|-----------------|-----------------|-----------------|
 A|-----------------|-----------------|-----------------|-----------------|
 E|-----------------|-----------------|-----------------|-----------------|
    power...       ...time...  ...senses...        ...up      from one...

chorus:
guitar one:
 e|-0---0-0-0---0-0-|-3---3-3-3---3-3-|-2---2-2-2---2-2-|-0---0-0-0---0-0-|
 B|-0---0-0-0---0-0-|-3---3-3-3---3-3-|-3---3-3-3---3-3-|-1---1-1-1---1-1-|
 G|-0---0-0-0---0-0-|-0---0-0-0---0-0-|-2---2-2-2---2-2-|-2---2-2-2---2-2-|
 D|-2---2-2-2---2-2-|-0---0-0-0---0-0-|-0---0-0-0---0-0-|-2---2-2-2---2-2-|
 A|-2---2-2-2---2-2-|-2---2-2-2---2-2-|-----------------|-0---0-0-0---0-0-|
 E|-0---0-0-0---0-0-|-3---3-3-3---3-3-|-----------------|-----------------|
guitar two:
 e|---------0-------|---------3-------|---------2-------|---------0-------|
 B|-0-----------0---|-3-----------3---|-3-----------3---|-1-----------1---|
 G|-----0-0---------|-----0-0---------|-----2-2---------|-----2-2---------|
 D|-----------------|-----------------|-----------------|-----------------|
 A|-----------------|-----------------|-----------------|-----------------|
 E|-----------------|-----------------|-----------------|-----------------|
        from...    ...spring......to....end

guitar one:
 e|-0---0-0-0---0-0-|-3---3-3-3---3-3-|-2---2-2-2---2-2-|-0---0-0-0---0-0-|
 B|-0---0-0-0---0-0-|-3---3-3-3---3-3-|-3---3-3-3---3-3-|-1---1-1-1---1-1-|
 G|-0---0-0-0---0-0-|-0---0-0-0---0-0-|-2---2-2-2---2-2-|-2---2-2-2---2-2-|
 D|-2---2-2-2---2-2-|-0---0-0-0---0-0-|-0---0-0-0---0-0-|-2---2-2-2---2-2-|
 A|-2---2-2-2---2-2-|-2---2-2-2---2-2-|-----------------|-0---0-0-0---0-0-|
 E|-0---0-0-0---0-0-|-3---3-3-3---3-3-|-----------------|-----------------|
guitar two:
 e|---------0-------|---------3-------|---------2-------|---------0-------|
 B|-0-----------0---|-3-----------3---|-3-----------3---|-1-----------1---|
 G|-----0-0---------|-----0-0---------|-----2-2---------|-----2-2---------|
 D|-----------------|-----------------|-----------------|-----------------|
 A|-----------------|-----------------|-----------------|-----------------|
 E|-----------------|-----------------|-----------------|-----------------|
        from...    ...sin.....waiting...end

interlude:
guitar one:
 e|--0---0---0---0--|--3---3---3---3--|--2---2---2---2--|--0---0---0---0--|
 B|--0---0---0---0--|--3---3---3---3--|--3---3---3---3--|--1---1---1---1--|
 G|--0---0---0---0--|--0---0---0---0--|--2---2---2---2--|--2---2---2---2--|
 D|--2---2---2---2--|--0---0---0---0--|--0---0---0---0--|--2---2---2---2--|
 A|--2---2---2---2--|--2---2---2---2--|-----------------|--0---0---0---0--|
 E|--0---0---0---0--|--3---3---3---3--|-----------------|-----------------|
guitar two:
 e|-----------------|-----------------|-----------------|-----------------|
 B|-----------------|-----------------|-----------------|-----------------|
 G|-----------------|-----------------|-----------------|-----------------|
 D|-----------------|-----------------|-----------------|-----------------|
 A|-----------------|-----------------|-----------------|-----------------|
 E|-----------------|-----------------|-----------------|-----------------|
       now... ...looking...     ...in way down          the...  ...dimmer

guitar one:
 e|--0---0---0---0--|--3---3---3---3--|--2---2---2---2--|--0---0---0---0--|
 B|--0---0---0---0--|--3---3---3---3--|--3---3---3---3--|--1---1---1---1--|
 G|--0---0---0---0--|--0---0---0---0--|--2---2---2---2--|--2---2---2---2--|
 D|--2---2---2---2--|--0---0---0---0--|--0---0---0---0--|--2---2---2---2--|
 A|--2---2---2---2--|--2---2---2---2--|-----------------|--0---0---0---0--|
 E|--0---0---0---0--|--3---3---3---3--|-----------------|-----------------|
guitar two:
 e|-----------------|-----------------|-----------------|-----------------|
 B|-----------------|-----------------|-----------------|-----------------|
 G|-----------------|-----------------|-----------------|-----------------|
 D|-----------------|-----------------|-----------------|-----------------|
 A|-----------------|-----------------|-----------------|-----------------|
 E|-----------------|-----------------|-----------------|-----------------|
       now... ...looking...     ...in way down          the...  ...dimmer

guitar one:
 e|--0---0---0---0--|--3---3---3---3--|--2---2---2---2--|--0---0---0---0--|
 B|--0---0---0---0--|--3---3---3---3--|--3---3---3---3--|--1---1---1---1--|
 G|--0---0---0---0--|--0---0---0---0--|--2---2---2---2--|--2---2---2---2--|
 D|--2---2---2---2--|--0---0---0---0--|--0---0---0---0--|--2---2---2---2--|
 A|--2---2---2---2--|--2---2---2---2--|-----------------|--0---0---0---0--|
 E|--0---0---0---0--|--3---3---3---3--|-----------------|-----------------|
guitar two:
 e|--7-----7-----7--|--7-----7-----7--|--7-----7-----7--|--7-----7-----7--|
 B|----8-----8-----8|----7-----7-----7|----7-----7-----7|----7-----7-----7|
 G|------9-----9----|------7-----7----|------7-----7----|------9-----9----|
 D|-----------------|-----------------|-----------------|-----------------|
 A|-----------------|-----------------|-----------------|-----------------|
 E|-----------------|-----------------|-----------------|-----------------|

guitar one:
 e|--0---0---0---0--|--3---3---3---3--|--2---2---2---2--|--0---0---0---0--|
 B|--0---0---0---0--|--3---3---3---3--|--3---3---3---3--|--1---1---1---1--|
 G|--0---0---0---0--|--0---0---0---0--|--2---2---2---2--|--2---2---2---2--|
 D|--2---2---2---2--|--0---0---0---0--|--0---0---0---0--|--2---2---2---2--|
 A|--2---2---2---2--|--2---2---2---2--|-----------------|--0---0---0---0--|
 E|--0---0---0---0--|--3---3---3---3--|-----------------|-----------------|
guitar two:
 e|--7-----7-----7--|--7-----7-----7--|--7-----7-----7--|--7-----7-----7--|
 B|----8-----8-----8|----7-----7-----7|----7-----7-----7|----7-----7-----7|
 G|------9-----9----|------7-----7----|------7-----7----|------9-----9----|
 D|-----------------|-----------------|-----------------|-----------------|
 A|-----------------|-----------------|-----------------|-----------------|
 E|-----------------|-----------------|-----------------|-----------------|

guitar one:
 e|-0---0---3---3---|-2---2---0---0---|-0---0---3---3---|-2---2---0---0---|
 B|-0---0---3---3---|-3---3---1---1---|-0---0---3---3---|-3---3---1---1---|
 G|-0---0---0---0---|-2---2---2---2---|-0---0---0---0---|-2---2---2---2---|
 D|-2---2---0---0---|-0---0---2---2---|-2---2---0---0---|-0---0---2---2---|
 A|-2---2---2---2---|---------0---0---|-2---2---2---2---|---------0---0---|
 E|-0---0---3---3---|-----------------|-0---0---3---3---|-----------------|
guitar two:
 e|-----7-5-----7-7-|-----7-5-----8-7-|-----7-5-----7-5-|-----7-5-----8-7-|
 B|-5-5-----5-5-----|-5-5-----5-5-----|-5-5-----5-5-----|-5-5-----5-5-----|
 G|-----------------|-----------------|-----------------|-----------------|
 D|-----------------|-----------------|-----------------|-----------------|
 A|-----------------|-----------------|-----------------|-----------------|
 E|-----------------|-----------------|-----------------|-----------------|

solo:
guitar one:
 e|-0---0---3---3---|-2---2---0---0---|-0---0---3---3---|-2---2---0---0---|
 B|-0---0---3---3---|-3---3---1---1---|-0---0---3---3---|-3---3---1---1---|
 G|-0---0---0---0---|-2---2---2---2---|-0---0---0---0---|-2---2---2---2---|
 D|-2---2---0---0---|-0---0---2---2---|-2---2---0---0---|-0---0---2---2---|
 A|-2---2---2---2---|---------0---0---|-2---2---2---2---|---------0---0---|
 E|-0---0---3---3---|-----------------|-0---0---3---3---|-----------------|
guitar two:
 e|-----7---5h7-77-7|-----------7-----|-----7-5-------8-|7----5--5-7-8--7-|
 B|-5---------------|-7-77h8p75---7-5-|-5-5-----8-5-5---|--8--------------|
 G|-----------------|-----------------|-----------------|-----------------|
 D|-----------------|-----------------|-----------------|-----------------|
 A|-----------------|-----------------|-----------------|-----------------|
 E|-----------------|-----------------|-----------------|-----------------|

outro:
guitar one:
 e|--0------3-------|-2-------0-------|-0-------3-------|-0---------------|
 B|--0------3-------|-3-------1-------|-0-------3-------|-1---------------|
 G|--0------0-------|-2-------2-------|-0-------0-------|-2---------------|
 D|--2------0-------|-0-------2-------|-2-------0-------|-2---------------|
 A|--2------2-------|---------0-------|-2-------2-------|-0---------------|
 E|--0------3-------|-----------------|-0-------3-------|-----------------|
guitar two:
 e|-----------------|-----------------|-----------------|-----------------|
 B|-----------------|-----------------|-----------------|-----------------|
 G|-----------------|-----------------|-----------------|-----------------|
 D|-----------------|-----------------|-----------------|-----------------|
 A|-----------------|-----------------|-----------------|-----------------|
 E|-----------------|-----------------|-----------------|-----------------|
        come on...     ...put your......fire....on   come on

enjoy!


lyrics:
-------
come on, come on
put your hands into the fire
explain, explain
as i turn and meet the power
this time, This time
turning white and senses dire
pull up, pull up

and it’s waiting on the end

come on, come on
put your hands into the fire
explain, explain
as i turn and meet the power
this time, This time
turning white and sense dire
pull up, pull up

and it’s waiting on the end

and now i’m alone i’m looking out
i’m looking in, way down
the lights are dim
and now i’m alone i’m looking out
i’m looking in, way down
the lights are dim

come on, come on
put your hands into the fire
come on, come on
============================================================================
| /  slide up
| \  slide down
| h  hammer-on
| p  pull-off
| ~  vibrato
| +  harmonic
| x  Mute note
============================================================================
            
Submit corrections


        Into The Fire lessons Hard to play? Try these video lessons and learn fast Into The Fire lessons
        
↑ Back to top | Tablatures and chords for acoustic guitar and electric guitar, ukulele, drums are parodies/interpretations of the original songs. You may use it for private study, scholarship, research or language learning purposes only