» » »

Thirteen Senses - Into The Fire Tabs

Artists:  A B C D E F G H I J K L M N O P Q R S T U V W X Y Z # 

Into The Fire Tabs

(ver. 1) Click to play this song!
Thirteen Senses
 Rating:
3.8/5 (5 votes)

 Into The Fire lessons Tabs too difficult? Try these video lessons and learn fast
 
                
Thirteen senses
Into the fire





_____________________________________________________

Tuning: EADGBe

Legend
	h    - hammer on
	p    - pull off
	/    - slide up
	x    - muted note


Guitar 1: Piano parts
Guitar 2: Electric guitar

_____________________________________________________


Intro:

Guitar 1 (piano)


      Eb5       F#5       C#5       G#5

e|-------------------------------------------|
B|-------------------------------------------|
G|---8--8-8--------------6--6-6--------------|
D|---8--8-8----4--4-4----6--6-6----6--6-6----| (x4)
A|---6--6-6----4--4-4----4--4-4----6--6-6----|
E|-------------2--2-2--------------4--4-4----|


Enter guitar 2:

e|-------------------------------------------|
B|-----11-9-------11-9------11-9------12-11--|
G|--8----------8-----------------------------|
D|-----------------------11--------13--------| (x2)
A|-------------------------------------------|
E|-------------------------------------------|

_____________________________________________________


Verse 1:


Come on, come on
Put your hands into the fire
Explain, explain
As I turn and meet the power
This time, this time
Turning white and senses dire
Pull up, pull up

Guitar 1 (piano)


      Eb5       F#5       C#5       G#5

e|-------------------------------------------|
B|-------------------------------------------|
G|---8--8-8--------------6--6-6--------------|
D|---8--8-8----4--4-4----6--6-6----6--6-6----| (x4)
A|---6--6-6----4--4-4----4--4-4----6--6-6----|
E|-------------2--2-2--------------4--4-4----|

_____________________________________________________


Chrous 1:

And it's waiting on the end


Guitar 1 (piano)

        B5           Eb5          C#5        B5

e|-------------------------------------------------|
B|-------------------------------------------------|
G|--4-4-4-4-4-4--8-8-8-8-8-8--6-6-6-6-6-6--4-4-4-4-|
D|--4-4-4-4-4-4--8-8-8-8-8-8--6-6-6-6-6-6--4-4-4-4-| (x2)
A|--2-2-2-2-2-2--6-6-6-6-6-6--4-4-4-4-4-4--2-2-2-2-|
E|-------------------------------------------------|

Finish on:


Guitar 2:

e|-----------|
B|---4/9-----|
G|-----------|
D|-----------|
A|-----------|
E|-----------|

_____________________________________________________


Interlude:

Guitar 1 (piano)


      Eb5       F#5       C#5       G#5

e|-------------------------------------------|
B|-------------------------------------------|
G|---8--8-8--------------6--6-6--------------|
D|---8--8-8----4--4-4----6--6-6----6--6-6----| (x2)
A|---6--6-6----4--4-4----4--4-4----6--6-6----|
E|-------------2--2-2--------------4--4-4----|


Guitar 2:

e|-------------------------------------------|
B|-----11-9-------11-9------11-9------12-11--|
G|--8----------8-----------------------------|
D|-----------------------11--------13--------| (x2)
A|-------------------------------------------|
E|-------------------------------------------|

_____________________________________________________


Verse 2:


Come on, come on
Put your hands into the fire
Explain, explain
As I turn and meet the power
This time, this time
Turning white and senses dire
Pull up, pull up


Guitar 1 (piano)


      Eb5       F#5       C#5       G#5

e|-------------------------------------------|
B|-------------------------------------------|
G|---8--8-8--------------6--6-6--------------|
D|---8--8-8----4--4-4----6--6-6----6--6-6----| (x4)
A|---6--6-6----4--4-4----4--4-4----6--6-6----|
E|-------------2--2-2--------------4--4-4----|

Guitar 2:


e|-------------------------------------------|
B|--16--14-----------------------------------|
G|----------15--13---------------------------|
D|------------------16--15-------------------| (x2)
A|--------------------------16--14--14-------|
E|-------------------------------------------|

_____________________________________________________


Chrous 2:


And it's waiting on the end


Guitar 1 (piano)

        B5           Eb5          C#5        B5

e|-------------------------------------------------|
B|-------------------------------------------------|
G|--4-4-4-4-4-4--8-8-8-8-8-8--6-6-6-6-6-6--4-4-4-4-|
D|--4-4-4-4-4-4--8-8-8-8-8-8--6-6-6-6-6-6--4-4-4-4-| (x2)
A|--2-2-2-2-2-2--6-6-6-6-6-6--4-4-4-4-4-4--2-2-2-2-|
E|-------------------------------------------------|

Finish on:


Guitar 2:

e|-----------|
B|---4/9-----|
G|-----------|
D|-----------|
A|-----------|
E|-----------|

_____________________________________________________


Interlude:

Guitar 1 (piano)


      Eb5       F#5       C#5       G#5

e|-------------------------------------------|
B|-------------------------------------------|
G|---8--8-8--------------6--6-6--------------|
D|---8--8-8----4--4-4----6--6-6----6--6-6----| (x2)
A|---6--6-6----4--4-4----4--4-4----6--6-6----|
E|-------------2--2-2--------------4--4-4----|


Guitar 2:

e|-------------------------------------------|
B|-----11-9-------11-9------11-9------12-11--|
G|--8----------8-----------------------------|
D|-----------------------11--------13--------| (x2)
A|-------------------------------------------|
E|-------------------------------------------|


Finish on:


Guitar 2:

e|-----------|
B|--22/16----|
G|-----------|
D|-----------|
A|-----------|
E|-----------|


_____________________________________________________

Chrous 3:


And it's waiting on the end


Guitar 1 (piano)

        B5           Eb5          C#5        B5

e|-------------------------------------------------|
B|-------------------------------------------------|
G|--4-4-4-4-4-4--8-8-8-8-8-8--6-6-6-6-6-6--4-4-4-4-|
D|--4-4-4-4-4-4--8-8-8-8-8-8--6-6-6-6-6-6--4-4-4-4-| (x2)
A|--2-2-2-2-2-2--6-6-6-6-6-6--4-4-4-4-4-4--2-2-2-2-|
E|-------------------------------------------------|

Guitar 2:

e|-----------|
B|--22/16----|
G|-----------|
D|-----------|
A|-----------|
E|-----------|


_____________________________________________________


Outro:


Come on, come on
Put your hands into the fire
Come on, come on

Guitar 1 (piano)


      Eb5       F#5       C#5       G#5

e|-------------------------------------------|
B|-------------------------------------------|
G|---8--8-8--------------6--6-6--------------|
D|---8--8-8----4--4-4----6--6-6----6--6-6----| (x2)
A|---6--6-6----4--4-4----4--4-4----6--6-6----|
E|-------------2--2-2--------------4--4-4----|


The End

By mark Bryce
            
Submit corrections


        Into The Fire lessons Hard to play? Try these video lessons and learn fast Into The Fire lessons
        
↑ Back to top | Tablatures and chords for acoustic guitar and electric guitar, ukulele, drums are parodies/interpretations of the original songs. You may use it for private study, scholarship, research or language learning purposes only