Home » T » The Youth »

The Youth - Mukha Ng Pera Tabs

Artists:  A B C D E F G H I J K L M N O P Q R S T U V W X Y Z # 

Mukha Ng Pera Tabs

(ver. 2) Click to play this song!
The Youth
Intro

Gtr 1 (Clean)

e|-------5~-----5-------5~---5\-------2~-----2-------2~---2~-|
B|-------5~-----5-------5~---5\-------3~-----3-------3~---3~-|
G|-----7------7-------7----7--------4------4-------4----4----| 3x
D|---7------7-------7-------------4------4-------4-----------|
A|-5--------------5-------------2--------------2-------------|
E|-----------------------------------------------------------|

Gtr 2 (Distored, Start on Gtr 1, 2nd time)

e|-----------------------------------------------------------|
B|-----------------------------------------------------------|
G|-/9--7~--9-9/11~--11/12-11~--11-9-7~--9-7-9-9/11~-9-7-6h7~-|
D|-----------------------------------------------------------|
A|-----------------------------------------------------------|
E|-----------------------------------------------------------|

Main Riff

Gtr 1 & 2 (Distored)

e|---------------------------------------------------|
B|---------------------------------------------------|
G|-7-777-7-77-7-77-7-77-7-7-4-444-4-44-4-44-4-44-4-4-| continue
D|-7-777-7-77-7-77-7-77-7-7-4-444-4-44-4-44-4-44-4-4-|
A|-5-555-5-55-5-55-5-55-5-5-2-222-2-22-2-22-2-22-2-2-|
E|---------------------------------------------------|
P.M  ...   ..   ..   ..   .   ...   ..   ..   ..   .  

e|---------------------------------------------------|
B|---------------------------------------------------|
G|---------------------------------------------------|
D|-5-555-5-55-5-55-5-55-5-5-7-777-7-77-7-77-7-77-7-7-|
A|-5-555-5-55-5-55-5-55-5-5-7-777-7-77-7-77-7-77-7-7-|
E|-3-333-3-33-3-33-3-33-3-3-5-555-5-55-5-55-5-55-5-5-|
P.M  ...   ..   ..   ..   .   ...   ..   ..   ..   .

Verse 1

Gtr 1 (Distored)

e|---------------------------------------------------|
B|---------------------------------------------------|
G|-7-777-7-77-7-77-7-77-7-7-4-444-4-44-4-44-4-44-4-4-| continue
D|-7-777-7-77-7-77-7-77-7-7-4-444-4-44-4-44-4-44-4-4-|
A|-5-555-5-55-5-55-5-55-5-5-2-222-2-22-2-22-2-22-2-2-|
E|---------------------------------------------------|
P.M  ...   ..   ..   ..   .   ...   ..   ..   ..   .  

e|---------------------------------------------------|
B|---------------------------------------------------|
G|---------------------------------------------------|
D|-5-555-5-55-5-55-5-55-5-5-7-777-7-77-7-77-7-77-7-7-|
A|-5-555-5-55-5-55-5-55-5-5-7-777-7-77-7-77-7-77-7-7-|
E|-3-333-3-33-3-33-3-33-3-3-5-555-5-55-5-55-5-55-5-5-|
P.M  ...   ..   ..   ..   .   ...   ..   ..   ..   .

Gtr 2 (Distored)

e|-------------------------------------------------------------------------------|
B|-------------------------------------------------------------------------------|
G|-7~-----------------------4~---------------------------------------------------|
D|-7~-----------------------4~-----------------------5~-----------------------7~-|
A|-5~-----------------------2~-----------------------5~-----------------------7~-|
E|---------------------------------------------------3~-----------------------5~-|

Gtr 1 & 2 (Distored)

e|---------------------------------------------------|
B|---------------------------------------------------|
G|-7-777-7-77-7-77-7-77-7-7-4-444-4-44-4-44-4-44-4-4-| continue
D|-7-777-7-77-7-77-7-77-7-7-4-444-4-44-4-44-4-44-4-4-|
A|-5-555-5-55-5-55-5-55-5-5-2-222-2-22-2-22-2-22-2-2-|
E|---------------------------------------------------|
P.M  ...   ..   ..   ..   .   ...   ..   ..   ..   .  

e|---------------------------------------------------|
B|---------------------------------------------------|
G|---------------------------------------------------|
D|-5-555-5-55-5-55-5-55-5-5-7-777-7-77-7-77-7-77-7-7-|
A|-5-555-5-55-5-55-5-55-5-5-7-777-7-77-7-77-7-77-7-7-|
E|-3-333-3-33-3-33-3-33-3-3-5-555-5-55-5-55-5-55-5-5-|
P.M  ...   ..   ..   ..   .   ...   ..   ..   ..   .

Main Riff

Gtr 1 & 2 (Distored)

e|---------------------------------------------------|
B|---------------------------------------------------|
G|-7-777-7-77-7-77-7-77-7-7-4-444-4-44-4-44-4-44-4-4-| continue
D|-7-777-7-77-7-77-7-77-7-7-4-444-4-44-4-44-4-44-4-4-|
A|-5-555-5-55-5-55-5-55-5-5-2-222-2-22-2-22-2-22-2-2-|
E|---------------------------------------------------|
P.M  ...   ..   ..   ..   .   ...   ..   ..   ..   .  

e|---------------------------------------------------|
B|---------------------------------------------------|
G|---------------------------------------------------|
D|-5-555-5-55-5-55-5-55-5-5-7-777-7-77-7-77-7-77-7-7-|
A|-5-555-5-55-5-55-5-55-5-5-7-777-7-77-7-77-7-77-7-7-|
E|-3-333-3-33-3-33-3-33-3-3-5-555-5-55-5-55-5-55-5-5-|
P.M  ...   ..   ..   ..   .   ...   ..   ..   ..   .

Verse 2

Gtr 1 (Distored)

e|---------------------------------------------------|
B|---------------------------------------------------|
G|-7-777-7-77-7-77-7-77-7-7-4-444-4-44-4-44-4-44-4-4-| continue
D|-7-777-7-77-7-77-7-77-7-7-4-444-4-44-4-44-4-44-4-4-|
A|-5-555-5-55-5-55-5-55-5-5-2-222-2-22-2-22-2-22-2-2-|
E|---------------------------------------------------|
P.M  ...   ..   ..   ..   .   ...   ..   ..   ..   .  

e|---------------------------------------------------|
B|---------------------------------------------------|
G|---------------------------------------------------|
D|-5-555-5-55-5-55-5-55-5-5-7-777-7-77-7-77-7-77-7-7-|
A|-5-555-5-55-5-55-5-55-5-5-7-777-7-77-7-77-7-77-7-7-|
E|-3-333-3-33-3-33-3-33-3-3-5-555-5-55-5-55-5-55-5-5-|
P.M  ...   ..   ..   ..   .   ...   ..   ..   ..   .

Gtr 2 (Distored)

e|-------------------------------------------------------------------------------|
B|-------------------------------------------------------------------------------|
G|-7~-----------------------4~---------------------------------------------------|
D|-7~-----------------------4~-----------------------5~-----------------------7~-|
A|-5~-----------------------2~-----------------------5~-----------------------7~-|
E|---------------------------------------------------3~-----------------------5~-|

Gtr 1 & 2 (Distored)

e|---------------------------------------------------|
B|---------------------------------------------------|
G|-7-777-7-77-7-77-7-77-7-7-4-444-4-44-4-44-4-44-4-4-| continue
D|-7-777-7-77-7-77-7-77-7-7-4-444-4-44-4-44-4-44-4-4-|
A|-5-555-5-55-5-55-5-55-5-5-2-222-2-22-2-22-2-22-2-2-|
E|---------------------------------------------------|
P.M  ...   ..   ..   ..   .   ...   ..   ..   ..   .  

e|---------------------------------------------------|
B|---------------------------------------------------|
G|---------------------------------------------------|
D|-5-555-5-55-5-55-5-55-5-5-7-777-7-77-7-77-7-77-7-7-|
A|-5-555-5-55-5-55-5-55-5-5-7-777-7-77-7-77-7-77-7-7-|
E|-3-333-3-33-3-33-3-33-3-3-5-555-5-55-5-55-5-55-5-5-|
P.M  ...   ..   ..   ..   .   ...   ..   ..   ..   .

Chorus

Gtr 1 & 2 (Distored)

e|-----------------------------------------------|
B|-----------------------------------------------|
G|-----------------------7------7-----7----7-----| 2x
D|-5-555-5-55-7-777-7-77-7------7-----7----7-----|
A|-5-555-5-55-7-777-7-77-5-5-55-5-555-5-55-5-555-|
E|-3-333-3-33-5-555-5-55-------------------------|
P.M  ...   ..   ...   ..   . ..   ...   ..   ...

e|------------------------------------------------------------------------------------|
B|------------------------------------------------------------------------------------|
G|---------------------------------7-7-7-7-6-6-6-6-4-4-4-4-4-4-4-4--------------------|
D|-5-5-5-5-5-5-5-5-7-7-7-7-7-7-7-7-7-7-7-7-7-7-7-7-4-4-4-4-4-4-4-4-5-5-5-5-5-5-5-5-7\-|
A|-5-5-5-5-5-5-5-5-7-7-7-7-7-7-7-7-5-5-5-5-4-4-4-4-2-2-2-2-2-2-2-2-5-5-5-5-5-5-5-5-7\-|
E|-3-3-3-3-3-3-3-3-5-5-5-5-5-5-5-5---------------------------------3-3-3-3-3-3-3-3-5\-|

Gtr 1 (Distored)

e|---------------------------------------------------|
B|---------------------------------------------------|
G|-7-777-7-77-7-77-7-77-7-7-4-444-4-44-4-44-4-44-4-4-| 2x
D|-7-777-7-77-7-77-7-77-7-7-4-444-4-44-4-44-4-44-4-4-|
A|-5-555-5-55-5-55-5-55-5-5-2-222-2-22-2-22-2-22-2-2-|
E|---------------------------------------------------|
P.M  ...   ..   ..   ..   .   ...   ..   ..   ..   .

Gtr 2 (Distored)

e|-----------------------------|
B|-----------------------------|
G|-7~-----------------------4~-| 2x
D|-7~-----------------------4~-|
A|-5~-----------------------2~-|
E|-----------------------------|

Main Riff

Gtr 1 & 2 (Distored)

e|---------------------------------------------------|
B|---------------------------------------------------|
G|-7-777-7-77-7-77-7-77-7-7-4-444-4-44-4-44-4-44-4-4-| continue
D|-7-777-7-77-7-77-7-77-7-7-4-444-4-44-4-44-4-44-4-4-|
A|-5-555-5-55-5-55-5-55-5-5-2-222-2-22-2-22-2-22-2-2-|
E|---------------------------------------------------|
P.M  ...   ..   ..   ..   .   ...   ..   ..   ..   .  

e|---------------------------------------------------|
B|---------------------------------------------------|
G|---------------------------------------------------|
D|-5-555-5-55-5-55-5-55-5-5-7-777-7-77-7-77-7-77-7-7-|
A|-5-555-5-55-5-55-5-55-5-5-7-777-7-77-7-77-7-77-7-7-|
E|-3-333-3-33-3-33-3-33-3-3-5-555-5-55-5-55-5-55-5-5-|
P.M  ...   ..   ..   ..   .   ...   ..   ..   ..   .

Repeat Verse 1

Gtr 1 (Distored)

e|---------------------------------------------------|
B|---------------------------------------------------|
G|-7-777-7-77-7-77-7-77-7-7-4-444-4-44-4-44-4-44-4-4-| continue
D|-7-777-7-77-7-77-7-77-7-7-4-444-4-44-4-44-4-44-4-4-|
A|-5-555-5-55-5-55-5-55-5-5-2-222-2-22-2-22-2-22-2-2-|
E|---------------------------------------------------|
P.M  ...   ..   ..   ..   .   ...   ..   ..   ..   .  

e|---------------------------------------------------|
B|---------------------------------------------------|
G|---------------------------------------------------|
D|-5-555-5-55-5-55-5-55-5-5-7-777-7-77-7-77-7-77-7-7-|
A|-5-555-5-55-5-55-5-55-5-5-7-777-7-77-7-77-7-77-7-7-|
E|-3-333-3-33-3-33-3-33-3-3-5-555-5-55-5-55-5-55-5-5-|
P.M  ...   ..   ..   ..   .   ...   ..   ..   ..   .

Gtr 2 (Distored)

e|-------------------------------------------------------------------------------|
B|-------------------------------------------------------------------------------|
G|-7~-----------------------4~---------------------------------------------------|
D|-7~-----------------------4~-----------------------5~-----------------------7~-|
A|-5~-----------------------2~-----------------------5~-----------------------7~-|
E|---------------------------------------------------3~-----------------------5~-|

Gtr 1 & 2 (Distored)

e|---------------------------------------------------|
B|---------------------------------------------------|
G|-7-777-7-77-7-77-7-77-7-7-4-444-4-44-4-44-4-44-4-4-| continue
D|-7-777-7-77-7-77-7-77-7-7-4-444-4-44-4-44-4-44-4-4-|
A|-5-555-5-55-5-55-5-55-5-5-2-222-2-22-2-22-2-22-2-2-|
E|---------------------------------------------------|
P.M  ...   ..   ..   ..   .   ...   ..   ..   ..   .  

e|---------------------------------------------------|
B|---------------------------------------------------|
G|---------------------------------------------------|
D|-5-555-5-55-5-55-5-55-5-5-7-777-7-77-7-77-7-77-7-7-|
A|-5-555-5-55-5-55-5-55-5-5-7-777-7-77-7-77-7-77-7-7-|
E|-3-333-3-33-3-33-3-33-3-3-5-555-5-55-5-55-5-55-5-5-|
P.M  ...   ..   ..   ..   .   ...   ..   ..   ..   .

Chorus

Gtr 1 & 2 (Distored)

e|-----------------------------------------------|
B|-----------------------------------------------|
G|-----------------------7------7-----7----7-----| 2x
D|-5-555-5-55-7-777-7-77-7------7-----7----7-----|
A|-5-555-5-55-7-777-7-77-5-5-55-5-555-5-55-5-555-|
E|-3-333-3-33-5-555-5-55-------------------------|
P.M  ...   ..   ...   ..   . ..   ...   ..   ...

e|------------------------------------------------------------------------------------|
B|------------------------------------------------------------------------------------|
G|---------------------------------7-7-7-7-6-6-6-6-4-4-4-4-4-4-4-4--------------------|
D|-5-5-5-5-5-5-5-5-7-7-7-7-7-7-7-7-7-7-7-7-7-7-7-7-4-4-4-4-4-4-4-4-5-5-5-5-5-5-5-5-7\-|
A|-5-5-5-5-5-5-5-5-7-7-7-7-7-7-7-7-5-5-5-5-4-4-4-4-2-2-2-2-2-2-2-2-5-5-5-5-5-5-5-5-7\-|
E|-3-3-3-3-3-3-3-3-5-5-5-5-5-5-5-5---------------------------------3-3-3-3-3-3-3-3-5\-|

Gtr 1 (Distored)

e|---------------------------------------------------|
B|---------------------------------------------------|
G|-7-777-7-77-7-77-7-77-7-7-4-444-4-44-4-44-4-44-4-4-| 2x
D|-7-777-7-77-7-77-7-77-7-7-4-444-4-44-4-44-4-44-4-4-|
A|-5-555-5-55-5-55-5-55-5-5-2-222-2-22-2-22-2-22-2-2-|
E|---------------------------------------------------|
P.M  ...   ..   ..   ..   .   ...   ..   ..   ..   .

Gtr 2 (Distored)

e|---------------------------------------------------|
B|---------------------------------------------------|
G|-/9--7~--9-9/11~--11/12-11~--11-9-7~--9-7/12~-/14~-|
D|---------------------------------------------------|
A|---------------------------------------------------|
E|---------------------------------------------------|

Instrumental

Gtr 1 (Distored)

e|---------------------------------------------------|
B|---------------------------------------------------|
G|-7-777-7-77-7-77-7-77-7-7-4-444-4-44-4-44-4-44-4-4-| continue
D|-7-777-7-77-7-77-7-77-7-7-4-444-4-44-4-44-4-44-4-4-|
A|-5-555-5-55-5-55-5-55-5-5-2-222-2-22-2-22-2-22-2-2-|
E|---------------------------------------------------|
P.M  ...   ..   ..   ..   .   ...   ..   ..   ..   .  

e|---------------------------------------------------|
B|---------------------------------------------------|
G|---------------------------------------------------| 3x
D|-5-555-5-55-5-55-5-55-5-5-7-777-7-77-7-77-7-77-7-7-|
A|-5-555-5-55-5-55-5-55-5-5-7-777-7-77-7-77-7-77-7-7-|
E|-3-333-3-33-3-33-3-33-3-3-5-555-5-55-5-55-5-55-5-5-|
P.M  ...   ..   ..   ..   .   ...   ..   ..   ..   .

Gtr 2 (Distored)

e|-----------------------------------------------------------|
B|-----------------------------------------------------------|
G|-9b-9b-9b-9b-9br9-7h9p7--------------------7h9p7h9-7h9p7---| continue
D|------------------------9~---------7h9p7h9---------------9-|
A|---------------------------7h9p7h9-------------------------|
E|-----------------------------------------------------------|

e|------------------------------------|
B|-----------8/10~-8-7-8-7h8p7-8p7----| continue
G|-9br9-7-7~-----------------------9~-|
D|------------------------------------|
A|------------------------------------|
E|------------------------------------|

e|-----------------14-14-14-14/15-15-17p15p14-17p15p14-17p15p14-17-17b-17br17~-|
B|-/15-15-17-17-17-------------------------------------------------------------|
G|-----------------------------------------------------------------------------| continue
D|-----------------------------------------------------------------------------|
A|-----------------------------------------------------------------------------|
E|-----------------------------------------------------------------------------|

e|-15-14-15-14----------------------------------17----17----17----17----17-----|
B|-------------15----15-15/17-17-17b-17b-17~-15----15----15----15----15----15~-|
G|----------------14-----------------------------------------------------------| continue
D|-----------------------------------------------------------------------------|
A|-----------------------------------------------------------------------------|
E|-----------------------------------------------------------------------------|

e|-17-17-15-15-14-15-14--------15-15-15-14-14----14-----------|
B|----------------------15--------------------15----15--------|
G|-------------------------14~-------------------------14-14~-| continue
D|------------------------------------------------------------|
A|------------------------------------------------------------|
E|------------------------------------------------------------|

e|-------------------------14-15-17-15-14-17-15-14------------------------------|
B|-15-17~-15-17-17b-17b-17-------------------------17-15-14-17-15-14------------|
G|-------------------------------------------------------------------16b-16-14~-|
D|------------------------------------------------------------------------------|
A|------------------------------------------------------------------------------|
E|------------------------------------------------------------------------------|

Chorus

Gtr 1 & 2 (Distored)

e|-----------------------------------------------|
B|-----------------------------------------------|
G|-----------------------7------7-----7----7-----| 2x
D|-5-555-5-55-7-777-7-77-7------7-----7----7-----|
A|-5-555-5-55-7-777-7-77-5-5-55-5-555-5-55-5-555-|
E|-3-333-3-33-5-555-5-55-------------------------|
P.M  ...   ..   ...   ..   . ..   ...   ..   ...

e|------------------------------------------------------------------------------------|
B|------------------------------------------------------------------------------------|
G|---------------------------------7-7-7-7-6-6-6-6-4-4-4-4-4-4-4-4--------------------|
D|-5-5-5-5-5-5-5-5-7-7-7-7-7-7-7-7-7-7-7-7-7-7-7-7-4-4-4-4-4-4-4-4-5-5-5-5-5-5-5-5-7\-|
A|-5-5-5-5-5-5-5-5-7-7-7-7-7-7-7-7-5-5-5-5-4-4-4-4-2-2-2-2-2-2-2-2-5-5-5-5-5-5-5-5-7\-|
E|-3-3-3-3-3-3-3-3-5-5-5-5-5-5-5-5---------------------------------3-3-3-3-3-3-3-3-5\-|

Gtr 1 (Distored)

e|---------------------------------------------------|
B|---------------------------------------------------|
G|-7-777-7-77-7-77-7-77-7-7-4-444-4-44-4-44-4-44-4-4-| 2x
D|-7-777-7-77-7-77-7-77-7-7-4-444-4-44-4-44-4-44-4-4-|
A|-5-555-5-55-5-55-5-55-5-5-2-222-2-22-2-22-2-22-2-2-|
E|---------------------------------------------------|
P.M  ...   ..   ..   ..   .   ...   ..   ..   ..   .

Gtr 2 (Distored)

e|-----------------------------------------------|
B|-----------------------------------------------|
G|-/7~-9-7-9-9/11~--11/12-11~--11-9-7~-9-7~-7/9~-|
D|-----------------------------------------------|
A|-----------------------------------------------|
E|-----------------------------------------------|

Bridge

Gtr 1 & 2 (Distored)

e|------------------------------------------|
B|------------------------------------------|
G|-7-777-7-77----------77-777-7-77----------| 6x
D|-7-777-7-77-5-5-7-77-77-777-7-77-5-5-7-77-|
A|-5-555-5-55-5-5-7-77-55-555-5-55-5-5-7-77-|
E|------------3-3-5-55-------------3-3-5-55-|

e|----|
B|----|
G|-7~-|
D|-7~-|
A|-5~-|
E|----|

Outro

Gtr 2 (Distored)

e|-------------------------------------------------------------10--------|
B|-------------------------------------------------------8h10b----10br10-|
G|-9br9-7-7~-6h7~-11h12-11~-12-11~-12/14-12\11-12~-9\7h9-----------------|
D|-----------------------------------------------------------------------|
A|-----------------------------------------------------------------------|
E|-----------------------------------------------------------------------|            
Submit corrections

↑ Back to top | Tablatures and chords for acoustic guitar and electric guitar, ukulele, drums are parodies/interpretations of the original songs. You may use it for private study, scholarship, research or language learning purposes only