Home » T » The Youth »

The Youth - Magulo Ang Buhay Ng Tao Tabs

Artists:  A B C D E F G H I J K L M N O P Q R S T U V W X Y Z # 

Magulo Ang Buhay Ng Tao Tabs

(ver. 1) Click to play this song!
The Youth
Tabs for song: Magulo Buhay ng tao

Tuning: Standard (eBGDAE)
Legend:

*********************************************************************************
Legends:
| /  slide
| h  hammer-on
| p  pull-off

Intro: (Distorted) A5-C#5-D5-E5


 e |------------------------------------------------------------9-----10------10------10--|
B |--------------10------10------10------9------10----------------------------------------|
G |---------------------------------------------------------------------------------------|
D |---------------------------------------------------------------------------------------|
A |---------------------------------------------------------------------------------------|
E |---------------------------------------------------------------------------------------|

    ------------------9------9-----9------10------10------10-------9------10----12-----10----9-----------------------------|I
    -----------------------------------------------------------------------------------------------------------12----------|I
    -------------------------------------------------------------------------------------------------------------------I---|  2x
    -----------------------------------------------------------------------------------------------------------------------|I
    -----------------------------------------------------------------------------------------------------------------------|I
    -----------------------------------------------------------------------------------------------------------------------|I

  A              C#m    D                    E
Tayo’y nasa ibabaw ng mundong ito, bilog na paligid pinagmulan nang tao

A                 C#m   D                     E
Iba’t-abang lahi sari-saring bandera ang isip ay iba’t-iba ang takbo

Refrain (Adlib 2x)

e |-----------------------------------------------------------------|
B |--------- ----10-----10-----10-----9-----10------9------9-----9--|
G |-----------------------------------------------------------------|
D |-----------------------------------------------------------------|
A |-----------------------------------------------------------------|
E |-----------------------------------------------------------------|

    ---------------------------------------------------------------------------------------------------------|I
    --------------10----10—/---12----10----10----10----9----10----10---/----12-------------------------------|I
    ---------------------------------------------------------------------------------------------------------|I
    ---------------------------------------------------------------------------------------------------------|I
    ---------------------------------------------------------------------------------------------------------|I
    ---------------------------------------------------------------------------------------------------------|I


Do same chords:

Maraming inosente ang nakatunganga, walang tiyak na patutunguhan
Kahit sa ano mang bagay na kani-kanilang daan
Walang ibang inisip kundi karahasan.

Chorus 1:
Magulo buhay nang tao, ang gulo pakiramdaman nyo.
Magulo lahat nang bagay dito, ang gulo bakit nangyari ito.


Guitar Solo: (Do same chords)
e |------------------------------------------------------------9-----10------10------10--|
B |--------------10------10------10------9------10---------------------------------------|
G |--------------------------------------------------------------------------------------|
D |--------------------------------------------------------------------------------------|
A |--------------------------------------------------------------------------------------|
E |--------------------------------------------------------------------------------------|

    ------------------9------9-----9------10------10------10-------9------10----12-----10----9-----------------------------|I
    -----------------------------------------------------------------------------------------------------------12----------|I
    -------------------------------------------------------------------------------------------------------------------I---|  2x
    -----------------------------------------------------------------------------------------------------------------------|I
    -----------------------------------------------------------------------------------------------------------------------|I
    -----------------------------------------------------------------------------------------------------------------------|I

e |-----------------------------------------------------------------|
B |--------- ----10-----10-----10-----9-----10------9------9-----9--|
G |-----------------------------------------------------------------|
D |-----------------------------------------------------------------|
A |-----------------------------------------------------------------|
E |-----------------------------------------------------------------|

    ---------------------------------------------------------------------------------------------------------|I
    --------------10----10—/---12----10----10----10----9----10----10---/----12-------------------------------|I
    ---------------------------------------------------------------------------------------------------------|I
    ---------------------------------------------------------------------------------------------------------|I
    ---------------------------------------------------------------------------------------------------------|I
    ---------------------------------------------------------------------------------------------------------|I


e |---------------17 –( 7x)---16-----------16--------------------14---14-----------------------------------------------------------|I
B |-----------------------------------17--------------17----17------------------15---15---15--/--17--------------------------------|I
G |---------------------------------------------------------------------------------------------------------------16-----------I---|  2X
D |--------------------------------------------------------------------------------------------------------------------------------|I
A |--------------------------------------------------------------------------------------------------------------------------------|I
E |--------------------------------------------------------------------------------------------------------------------------------|I

e |----------------17---17---17---17---16---17---19---17---16---17----------------------|
B |-------------------------------------------------------------------------------------|
G |-------------------------------------------------------------------------------------|
D |-------------------------------------------------------------------------------------|
A |-------------------------------------------------------------------------------------|
E |-------------------------------------------------------------------------------------|

    ---16h-17---19---16h-17---19---16h-17---19-/-21--19--------------------------------------------------|I
    -----------------------------------------------------------------------------------------------------|I
    -----------------------------------------------------------------------------------------------------|I
    -----------------------------------------------------------------------------------------------------|I
    -----------------------------------------------------------------------------------------------------|I
    -----------------------------------------------------------------------------------------------------|I


Ang gulo! Magulo! Ang gulo, napaka-gulo, ang gulo!
Magulo…! Oohh…!


Chorus2:

Ang gulo sari-saring lahi, ang gulo iba’t-ibang ugali.
Ang gulo kanya-kanyang wika, magulo kulay ng mga bandera……
Who… ooh…!

Chorus3:

Ang gulo buhay nang tao, napaka-gulo pati na rin buhay ko.
Magulo ang buong mundo, ang gulo bakit nangyari ito….
Wooh… ooh!
Wooh… ooh…

I haven’t seen this posted so ill post wut i know.
That was a very first time to do something like that.
Dedicated to my loving wife and son “ Rosan and Kurt Cobain”
To all my friends out there, former band “Selda Singko” buong Tropa dyan sa malanday valenzuela
Musta kayo dyan sa urrutia mga pare. Sa mga music lover gud luck “ IT’S TOO LOUD. YOUR TOO OLD!!!”
            
Submit corrections

↑ Back to top | Tablatures and chords for acoustic guitar and electric guitar, ukulele, drums are parodies/interpretations of the original songs. You may use it for private study, scholarship, research or language learning purposes only