Home » T » The Youth »

The Youth - Magulo Ang Buhay Ng Tao Bass

Artists:  A B C D E F G H I J K L M N O P Q R S T U V W X Y Z # 

Magulo Ang Buhay Ng Tao Bass

(ver. 1) Click to play this song!
The Youth
Tabs for song: Magulo Buhay ng tao

Tuning: Standard (eBGDAE)


***************************************************************

 
Guitar Bass riffs:
Chord pattern (A-C#-D-E)


G||--------------------------------------------------
D||------------------6---------7---------------------
A||--------7-5-4-4-4---4-5-5-5---5-7-9-7-------------
E||--5-5-5-------------------------------9-7-5-------

   --------------------------------------------------
   ------------------6---------7---------------------
   --------7-5-4-4-4---4-5-5-5---5-7-7-5-5-----------
   --5-5-5---------------------------------9-9-7-7-5--




This is to complete the song on my first project.
Pinoy funk/Rock alternative id never forgotten.
Dedicated to my loving wife and son “ Rosan and Kurt Cobain”
To all my friends out there, my former band “Selda Singko” Urrutia boys ng malanday valenzuela
Musta kayo dyan. “ IT’S TOO LOUD. YOUR TOO OLD!!!” (07Oct2006)
            
Submit corrections

↑ Back to top | Tablatures and chords for acoustic guitar and electric guitar, ukulele, drums are parodies/interpretations of the original songs. You may use it for private study, scholarship, research or language learning purposes only