Home » T » The Xx »

The Xx - Intro Bass

Artists:  A B C D E F G H I J K L M N O P Q R S T U V W X Y Z # 

Intro Bass

(ver. 2) Click to play this song!
The Xx
This is my first tab. its actually the guitar part but for bass, listen to the song to 
get the rhythm right.

|--------------------------------------------|
|--------------------------------------------|x2
|-0(x12)-3(x12)-5(x12)-7(x6)-5-5-5--3-3---0--|
|---------------------------------------3----|

|--------------------------------|
|--------------------------------|
|-0-0-3-3-5-5-3-3-2-3-3-5-5-3-3--|
|--------------------------------|


|-----------------------------------|
|-----------------------------------|
|-0-0-3-3-7-7-3-3-5-5-3-3-7-7-3-3---|
|-----------------------------------|

Repeat all once more, then play the ending:


|-----------------------------------|
|-----------------------------------|
|-0---0/3--5-7-3---3/5--10--5/7--3--|
|-----------------------------------|
            
Submit corrections

↑ Back to top | Tablatures and chords for acoustic guitar and electric guitar, ukulele, drums are parodies/interpretations of the original songs. You may use it for private study, scholarship, research or language learning purposes only