Home » T » The Xx »

The Xx - Intro Bass

Artists:  A B C D E F G H I J K L M N O P Q R S T U V W X Y Z # 

Intro Bass

(ver. 1) Click to play this song!
The Xx
Standard tuning

Wasn't too difficult to figure out, hope you enjoy and it was useful.

///=slide

Intro:
G-------------------------------------------------------------------|
D----------------------------------------------------0--2-2-2--2----|
A----------------3----------3------3-----------------------------3--|
E--1----5----1-----5----1-----5------1------12///5------------------|

Chorus (Directly leading from intro)
G------------------------------------------|
D------3-------3--5--7--7-7--0--2-2-2--2---|
A----------------------------------------3-|
E--1------0-1------------------------------| (2x)

"Bridge"
G-----------------------------------------------|
D-----------------------------------------------|
A-------------3-------------------0-3--3--3--3--|
E--1-----5------1---0-1--12///5-----------------|

Repeat Chorus (4x)
            
Submit corrections

↑ Back to top | Tablatures and chords for acoustic guitar and electric guitar, ukulele, drums are parodies/interpretations of the original songs. You may use it for private study, scholarship, research or language learning purposes only