» » »

The Word Alive - The Devil Inside Tabs

Artists:  A B C D E F G H I J K L M N O P Q R S T U V W X Y Z # 

The Devil Inside Tabs

(ver. 2) Click to play this song!
The Word Alive
 Rating:
3.5/5 (8 votes)


 The Devil Inside lessons Tabs too difficult? Try these video lessons and learn fast
 
                /=slide
T=tremolo
h=hammer on
*=harmonic
B=bend
.=palm mute   by:javi-rawwwr!!!!
             sorry ill put the intro later
            this tab is not 100% but thats why i need help this is just
             something to mold around. i organized the song by letters

           E|-----------------13-----------------------------------------|
           B|-----------------17-----------------------------------------|
           G|------15------------------------9----9----------------------|
           D|------12------------------------7----7----------------------|
           A|-1313-13---------------------88-8-88-8----------------------|
           D|---------0-7p08p0---0-3p03p0--------------------------------|
              **      *          *        **   **






  after intro
D|0~----|
A|0~----|
D|0~----|


       "A" E|--------------------------------------------|
           B|--------------------------------------------|
           G|-578578 356356 134134 356356----------------|
           D|--------------------------------------------|
           A|------then do again but palm muted----------|
           D|--------------------------------------------|

                 pattern a and b 2 times

        "B"E|--------------------------------------------|
           B|--------------------------------------------|
           G|-578578 79107910-9111291112 111314111314----|
           D|--------------------------------------------|
           A|---then do again but palm mute pattern A----|
           D|--------------------------------------------|

          (chorus)

           E|--------------------------------------------|
           B|-22(16x) 18(8x) 17(4x) 15(4x) --------------|
           G|--------------------------------------------|
           D|--------------------------------------------|
           A|--------(fast)------------------------------|
           D|--------------------------------------------|

           E|---------------18-20-18-20------------------|
           B|-22(8x) 15(4x)------------------------------|
           G|--------------------------------------------|
           D|--------------------------------------------|
           A|----------(slower)--------------------------|
           D|--------------------------------------------|


           E|-----------------------------------------------------------|
           B|-22(16x) 18(8x) 17(4x) 15(4x) 17(12x) 15(8x) 17(14x) 18(2x)|
           G|-----------------------------------------------------------|
           D|-----------------------------------------------------------|
           A|-----------------------------------------------------------|
           D|-----------------------------------------------------------|

             repeat verse
                then screamo part repeat this twice
           E|---------------------------------------------------------|
           B|----------3B---------------------------------------------|
           G|----------5B---------------------------------------------|
           D|---------------------------------------------------------|
           A|00000000------00-00---00000000----------------0-0--0-0---|
           D|00000000------00-00---00000000---(nothing)----0-0--0-0---|
             ........      .. ..   ........                . .  . .

               chorus again then


           E|----------------------------------------------------------------|
           B|-----------------------22-22-22-18-18-18-15-15-15-171717181718--|
           G|---------------781010-------------------------------------------|
           D|-----57810-7810-------------------------------------------------|
           A|-578------------------------------------------------------------|
           D|----------------------------------------------------------------|
                 short riff before breakdown
           E|--------------------------------------------|
           B|--------------------------------------------|
           G|-578 7910 356356 578 7910 356356------------|
           D|--------------------------------------------|
           A|--------------------------------------------|
           D|--------------------------------------------|


                BREAKDOWN!!!!(repeat 4 times)
           "A"E|----------------------------------------------|
           B|-----8/11-11-11-11-11-11-11-11 10 ---------------|
           G|--/7-------------------------------12------------|
           D|-------------------------------------------------|
           A|-------------------------------------------------|
           D|-------------------------------------------------|
                  repeat 4 times on 4th time end on 13 on b string
           "B"E|-----------------------------------------|
           B|---------8/11111111 101010------------------|
           G|-7777777-------------------12---------------|
           D|--------------------------------------------|
           A|--------------------------------------------|
           D|--------------------------------------------|
              .......                   .
              then repeat breakdown "A" twice

               more screaming!! figure how many times yourself:)
           E|-----------------3----5/6---------------------------------|
           B|-----------3-----3----5/6---------------------------------|
           G|-----------5B----3----5/6---------------------------------|
           D|----------------------------------------------------------|
           A|-00000000----00-----00------------------------------------|
           D|-00000000----0o-----00------------------------------------|
              ........    ..     ..
              the calm part after more screaming;)
           E|----------------------------------/1/20/----|
           B|--------------------------------------------|
           G|-5-55-5-55-5-55--3-33--5-55--7-77-----------|
           D|-5-55-5-55-5-55--3-33--5-55--7-77-----------|
           A|-3-33-3-33-3-33--1-11--3-33--5-55-----------|
           D|--------------------------------------------|

                then repeat the "oh my god shes just a little girl" part

              then end with this
           E|----------555-----55--5-------------------------------------|
           B|----------555-----55--5-------------------------------------|
           G|----------555-----55--5-------------------------------------|
           D|------------------------------------------------------------|
           A|-00000000----0000---00--------------------------------------|
           D|-00000000----0000---00--------------------------------------|
              ........    ....   ..

      and there you go not perfect but any questions or help me add on message me
            
Submit corrections



        The Devil Inside lessons Hard to play? Try these video lessons and learn fast The Devil Inside lessons
        
↑ Back to top | Tablatures and chords for acoustic guitar and electric guitar, ukulele, drums are parodies/interpretations of the original songs. You may use it for private study, scholarship, research or language learning purposes only