» » »

The Weeknd - Starboy Tabs

Artists:  A B C D E F G H I J K L M N O P Q R S T U V W X Y Z # 

Starboy Tabs

(ver. 1) Click to play this song!
The Weeknd
 Rating:
4.3/5 (22 votes)
    Starboy  lessons Tabs too difficult? Try these video lessons and learn fast
                Riff repeated during all the Verses
e|---------------------------------------------------------------------------|
B|---------------------------------------------------------------------------|
G|---5---------4--------2---------4------------------------------------------|
D|---7---------5--------3---------5------------------------------------------|
A|---7---------5--------3---------5------------------------------------------|
E|---------------------------------------------------------------------------|

[Complete with during pre-chorus]
e|------------------5---------3----------------------------------------------|
B|--------8------------------------------------------------------------------|
G|---5---------4--------2---------4------------------------------------------|
D|---7---------5--------3---------5------------------------------------------|
A|---7---------5--------3---------5------------------------------------------|
E|---------------------------------------------------------------------------|

            
Submit corrections

↑ Back to top | Tablatures and chords for acoustic guitar and electric guitar, ukulele, drums are parodies/interpretations of the original songs. You may use it for private study, scholarship, research or language learning purposes only