Home » T » The Ting Tings »

The Ting Tings - Great Dj Tabs

Artists:  A B C D E F G H I J K L M N O P Q R S T U V W X Y Z # 

Great Dj Tabs

(ver. 3) Click to play this song!
The Ting Tings

Intro and verse

e|----2-2-2-2-2-2-2-2-2-2-2-2-2-2-2-2----------------------------------------|
B|----3-3-3-3-3-3-3-3-3-3-3-3-3-3-3-3----------------------------------------|
G|----2-2-2-2-2-2-2-2-3-3-3-3-3-3-3-3----------------------------------------|
D|---------------------------------------------------------------------------|
A|---------------------------------------------------------------------------|
E|---------------------------------------------------------------------------|


Chorus
e|----1-1-1-1-1-1-1-1-----------------------------------------------------------------|
B|----3-3-3-3-3-3-3-3-1-1-1-1-1-1-1-1-------------------------------------------------|
G|----2-2-2-2-2-2-2-2-2-2-2-2-2-2-2-2-------------------------------------------------|
D|--------------------2-2-2-2-2-2-2-2-------------------------------------------------|
A|------------------------------------------------------------------------------------|
E|------------------------------------------------------------------------------------|
            
Submit corrections

↑ Back to top | Tablatures and chords for acoustic guitar and electric guitar, ukulele, drums are parodies/interpretations of the original songs. You may use it for private study, scholarship, research or language learning purposes only