Home » T » The Ting Tings »

The Ting Tings - Great Dj Tabs

Artists:  A B C D E F G H I J K L M N O P Q R S T U V W X Y Z # 

Great Dj Tabs

(ver. 1) Click to play this song!
The Ting Tings
this is the intro and the verses
has an easy to lern rythm

e|----2-2-2-2-2-2-2-2-2-2-2---2-2-2-2-2------------------------------------|
B|----3-3-3-3-3-3-3-3-3-3-3---3-3-3-3-3------------------------------------|
G|----2-2-2-2-2-2-2-2-3-3-3---3-3-3-3-3------------------------------------|
D|-------------------------------------------------------------------------|
A|-------------------------------------------------------------------------|
E|-------------------------------------------------------------------------|

this is the chorus


e|---------8-8-8-8---------10-10-10-10-------------------------------------|
B|-----------------8-8-8-8-------------10-10-10-10-------------------------|
G|-------------------------------------------------------------------------|
D|-------------------------------------------------------------------------|
A|-------------------------------------------------------------------------|
E|-------------------------------------------------------------------------|


and thats it u can easily work out where each part is played

:D
            
Submit corrections

↑ Back to top | Tablatures and chords for acoustic guitar and electric guitar, ukulele, drums are parodies/interpretations of the original songs. You may use it for private study, scholarship, research or language learning purposes only