Home » T » The Temper Trap »

The Temper Trap - Sweet Disposition Bass

Artists:  A B C D E F G H I J K L M N O P Q R S T U V W X Y Z # 

Sweet Disposition Bass

(ver. 3) Click to play this song!
The Temper Trap
my first tab. sounds right when you play it with the music in the background.
not sure wether its completely correct though, you might need to play longer than
i tabed for some bits


Come in at 0:37 with Guitar
G|------------------------------|
D|------------------------------|
A|55~-------------55~-----------|
E|------55---33-55------5---3-5-|

At 0:52
G|------------------------------|
D|------------------------------|  Slide between notes
A|5~------------5~------------5-|
E|------5~---3--------5---3--5--|  x2 on second only play:

G|-------------|
D|-------------|
A|5~-----------|
E| -----5~---3-|

Pre-Chorus
G|---------------------------------|
D|---------------------------------|
A|555555555555555555555555555555555
E|---------------------------------

Chorus (1:22
G|--------------------------------------------------------------|
D|--------------------------------------------------------------|
A|5555555555555-------------------------------------------------|
E|-------------5555555555555/3333333333333333333333/55555555555-| x4  Slide between notes

After chorus (1:53) x4
G|--------------------------------------------------------------------------|
D|--------------------------------------------------------------------------|
A|555555555555555555555555555555555-----------------------------------------|
E|---------------------------------555555555555555555555/333333333333333333-|


Pre-Chorus (2:29)  12, not 1, 2, 1, 2
G|--------------------------------------------------------------------------|
D|--------------------------------------------------------------------------|
A|55555555555555555555555555555555555555555555555555555/12121212121212121212|
E|--------------------------------------------------------------------------|

Chorus (2:44)
G|-----------------------------------------------------------------|
D|-----------------------------------------------------------------|
A|5555555555555----------------------------------------------------|
E|-------------5555555555555/3333333333333333333333/5555555555555--| x8

On 8th:
G|---------|
D|---------|
A|5~~~~~~~~
E|---------

Thats it, hope you like
            
Submit corrections

↑ Back to top | Tablatures and chords for acoustic guitar and electric guitar, ukulele, drums are parodies/interpretations of the original songs. You may use it for private study, scholarship, research or language learning purposes only