Home » T » The Temper Trap »

The Temper Trap - Sweet Disposition Tabs

Artists:  A B C D E F G H I J K L M N O P Q R S T U V W X Y Z # 

Sweet Disposition Tabs

(ver. 2) Click to play this song!
The Temper Trap
-------------------------------------------------------------------------------
-------------------------------------------------------------------------------

Tuning:

Intro (with delay) x 1

Palm muted a bit (stacatto)

e|-------------------------------------------------------------------------|
B|-------------------------------------------------------------------------|
G|-------------------------------------------------------------------------|
D|---4-5-7---4-5-7---4-5-7---4-5-7---4-5-7---4-5-7---4-5-7---4-5-7---------|
A|-5-------5-------5-------5-------5-------5-------5-------5---------------|
E|-------------------------------------------------------------------------|

Main riff (with delay) x 4 (stacatto)

e|-------------------------------------------------------------------------|
B|-------------------------------------------------------------------------|
G|-------------------------------------------------------------------------|
D|---4-5-7---4-5-7---4-5-7---4-5-7-------4-------4-------4-------4---------|
A|-5-------5-------5-------5---------5-7-----5-7-----5-7-----5-7-----------|
E|---------------------------------7-------7-------7-------7---------------|

now just play this chord heaps
e|-------------------------------------------------------------------------|
B|-7-7-7-7-7-7-7-7-7----etc...---------------------------------------------|
G|-7-7-7-7-7-7-7-7-7----etc...---------------------------------------------|
D|-------------------------------------------------------------------------|
A|-------------------------------------------------------------------------|
E|-------------------------------------------------------------------------|

back to the main riff x 2 (stacatto)

e|-------------------------------------------------------------------------|
B|-------------------------------------------------------------------------|
G|-------------------------------------------------------------------------|
D|---4-5-7---4-5-7---4-5-7---4-5-7-------4-------4-------4-------4---------|
A|-5-------5-------5-------5---------5-7-----5-7-----5-7-----5-7-----------|
E|---------------------------------7-------7-------7-------7---------------|

Then this slight variation once (staccato except for higher note, F#)
e|-------------------------------------------------------------------------|
B|---------------7---------------------------------------------------------|
G|-------------------------------------------------------------------------|
D|---4-5-7---4-5-----4-5-7---4-5-7-------4-------4-------4-------4---------|
A|-5-------5-------5-------5---------5-7-----5-7-----5-7-----5-7-----------|
E|---------------------------------7-------7-------7-------7---------------|

If you want I play the bass note every now and then (maybe the guitar does too..?) which 
be:

e|-------------------------------------------------------------------------|
B|-------------------------------------------------------------------------|
G|-------------------------------------------------------------------------|
D|---4-5-7---4-5-7---4-5-7---4-5-7-------4-------4-------4-------4---------|
A|-5-------5-------5-------5---------5-7-----5-7-----5-7-----5-7-----------|
E|---------------------------------7-------7-------3-------3---------------|

Then play that same chord again for the pre-chorus:

e|-------------------------------------------------------------------------|
B|-7-7-7-7-7-7-7-7-7------etc...-------------------------------------------|
G|-7-7-7-7-7-7-7-7-7------etc...-------------------------------------------|
D|-------------------------------------------------------------------------|
A|-------------------------------------------------------------------------|
E|-------------------------------------------------------------------------|

and as far as I can tell the chorus is the same, just keep strumming...

Back to verse:
Just bass for one measure

alteration of the main riff x 4
Palm muted a little bit more

e|-------------------------------------------------------------------------|
B|-------------------------------------------------------------------------|
G|-------------------------------------------------------------------------|
D|-7-5-4---7-5-4---7-5-4---7-5-4---4-------4-------4-------4---------------|
A|-------5-------5-------5-------5---7-5-----7-5-----7-5-----7-5-----------|
E|---------------------------------------7-------7-------7-------7---------|


During verse a 2nd guitar comes in with some natural harmonics
e|-------------------------------------------------------------------------|
B|----7*-------------------------------------------------------------------|
G|-7*---------5*---(whammy bar, depress)-----------------------------------|
D|---------5*--------------------------------------------------------------|
A|-------------------------------------------------------------------------|
E|-------------------------------------------------------------------------|


And thats pretty much everything i can hear guitar wise in the song, just the same for 
pre chorus and chorus, ie strumming lots.
            
Submit corrections

↑ Back to top | Tablatures and chords for acoustic guitar and electric guitar, ukulele, drums are parodies/interpretations of the original songs. You may use it for private study, scholarship, research or language learning purposes only