» » »

The Sword - Silver Petals Tabs

Artists:  A B C D E F G H I J K L M N O P Q R S T U V W X Y Z # 

Silver Petals Tabs

(ver. 1) Click to play this song!
The Sword
 Rating:
4.3/5 (20 votes)

 Silver Petals  lessons Tabs too difficult? Try these video lessons and learn fast
 
                --PART I--

E|---------------------------------|---------------------------------|
B|-3---------3-----1---------1-----|-0---------0-----0---------0-----|
G|-----0-------0-------0-------0---|-----0-------0-------0-------0---|
D|---------------------------------|---------------------------------|
A|---------------------------------|---------------------------------|
E|-3-------3-------2-------2-------|-1-------1-------1-------1-------| x 3

E|---------------------------------|---------------------------------|
B|-2---------2-----2-------3-------|-3---------3-----3~--------------|
G|-----0-------0-------0-------0---|-----0-------0-------------------|
D|---------------------------------|---------------------------------|
A|-0-------0-------0-------2-------|-3-------3-------3~--------------|
E|---------------------------------|---------------------------------|

--PART II--

Notice the first bar of the next part only has 3 beats instead of 4.

E|------------------------|---------------------------------|
B|-8---------8-----7------|-5---------5-----7-------5-------|
G|-----0-------0-------0--|-----0-------0-------0-------0---|
D|------------------------|---------------------------------|
A|-7-------7-------7------|-0-------0-------0-------0-------|
E|------------------------|---------------------------------|

E|---------------------------------|---------------------------------|
B|-6---------6-----5---------5-----|-3---------3-----3-------3-------|
G|-----0-------0-------0-------0---|-----0-------0-------0-------0---|
D|---------------------------------|-----------------1---------------|
A|-3-------3-------3-------3-------|-1-------1-----------------------|
E|---------------------------------|-------------------------4-------|

--PART III--

Repeat the very first part.

E|---------------------------------|---------------------------------|
B|-3---------3-----1---------1-----|-0---------0-----0---------0-----|
G|-----0-------0-------0-------0---|-----0-------0-------0-------0---|
D|---------------------------------|---------------------------------|
A|---------------------------------|---------------------------------|
E|-3-------3-------2-------2-------|-1-------1-------1-------1-------| x 3

E|---------------------------------|---------------------------------|
B|-2---------2-----2-------3-------|-3---------3-----3~--------------|
G|-----0-------0-------0-------0---|-----0-------0-------------------|
D|---------------------------------|---------------------------------|
A|-0-------0-------0-------2-------|-3-------3-------3~--------------|
E|---------------------------------|---------------------------------|

--PART IV--

E|---------------------------------|--------------------------------|
B|-5---------5-----7-------8-------|-5-------7-------8-------10-----|
G|-----0-------0-------0-------0---|-----0-------0-------0-------0--|
D|---------------------------------|--------------------------------|
A|-7-------7-------7-------7-------|-0-------0-------0-------0------|
E|---------------------------------|--------------------------------|

E|---------------------------------|--------------------------------|---------------------------------|
B|-10--------------8---------------|-2-----------------------3------|-5---------------3---------------|
G|-0---------------0---------------|-0-----------------------0------|-0---------------0---------------|
D|---------------------------------|--------------------------------|---------------------------------|
A|-8---------------7---------------|-0-----------------------2------|-3---------------3---------------|
E|---------------------------------|--------------------------------|---------------------------------|

--PART V--

Note: In the recording, you can't hear the notes on the E-string. They are played on a
bass guitar instead. However, if you're not accompanied by a bass guitar you should play
these yourself.

E|---------------------------------|---------------------------------|
B|-1p0---------3---1p0---------0---|-1p0---------3---1p0---------1p0-|
G|-----0---------------0-----------|-----0---------------0-----------|
D|---------------------------------|---------------------------------|
A|---------------------------------|---------------------------------|
E|-3-------3-------3-------3-------|-3-------3-------1-------1-------|

E|---------------------------------|---------------------------------|
B|-1p0---------3---1p0---------0---|-4---------4-----3---------3-----|
G|-----0---------------0-----------|-----0-------0-------0-------0---|
D|---------------------------------|---------------------------------|
A|---------------------------------|-1-------1-------1-------1-------|
E|-0-------0-------0-------0-------|---------------------------------|

This part is repeated 2 times, but with slight differences each time.

E|---------------------------------|---------------------------------|
B|-1p0---------3---1p0---------0---|-1p0---------3---1p0---------0---|
G|-----0---------------0-----------|-----0---------------0-----------|
D|---------------------------------|---------------------------------|
A|---------------------------------|---------------------------------|
E|-3-------3-------3-------3-------|-3-------3-------1-------1-------|

E|---------------------------------|---------------------------------|
B|-1p0---------3---1p0---------0---|-4---------4-----3---------3-----|
G|-----0---------------0-----------|-----0-------0-------0-------0---|
D|---------------------------------|---------------------------------|
A|---------------------------------|-1-------1-------1-------1-------|
E|-0-------0-------0-------0-------|---------------------------------|

E|---------------------------------|---------------------------------|
B|-1p0---------3---1p0---------0---|-Xp0---------3---1p0---------1p0-|
G|-----0---------------0-----------|-----0---------------0-----------|
D|---------------------------------|---------------------------------|
A|---------------------------------|---------------------------------|
E|-3-------3-------3-------3-------|-3-------3-------1-------1-------|

E|---------------------------------|---------------------------------|
B|-1p0---------3---1p0---------0---|-4---------4-----3---------3-----|
G|-----0---------------0-----------|-----0-------0-------0-------0---|
D|---------------------------------|---------------------------------|
A|---------------------------------|-1-------1-------1-------1-------|
E|-0-------0-------0-------0-------|---------------------------------|

E|-----------------3---3-----------|
B|-6---------6---------------------|
G|-----0-------0---0---0-----------|
D|---------------------------------|
A|-3-------3-------3---3-----------|
E|---------------------------------|

--PART VI--

E|-----------------|-----------------|-----------------|-----------------|
B|-3~--------------|-6~--------------|-1~--------------|-----------------|
G|-0~--------------|-0~--------------|-0~--------------|-----------------|
D|-----------------|-----------------|-----------------|-----------------|
A|-----------------|-----------------|-----------------|-----------------|
E|-3~--------------|-6~--------------|-1~--------------|-----------------|

E|-----------------|-----------------|-----------------|-----------------|
B|-0~--------------|-0~--------------|-1~--------------|-----------------|
G|-0~--------------|-0~--------------|-0~--------------|-----------------|
D|-----------------|-----------------|-----------------|-----------------|
A|-----------------|-----------------|-----------------|-----------------|
E|-3~--------------|-6~--------------|-1~--------------|-----------------|

E|-----------------|-----------------|-----------------|-0~--------------|
B|-3~--------------|-6~--------------|-1~--------------|-----------------|
G|-0~--------------|-0~--------------|-0~--------------|-0~--------------|
D|-----------------|-----------------|-----------------|-----------------|
A|-----------------|-----------------|-----------------|-----------------|
E|-0~--------------|-0~--------------|-1~--------------|-1~--------------|

E|-----------------|-----------------|-----------------|-----------------|
B|-3~--------------|-6~--------------|-1~--------------|-----------------|
G|-0~--------------|-0~--------------|-0~--------------|-----------------|
D|-----------------|-----------------|-----------------|-----------------|
A|-----------------|-----------------|-----------------|-----------------|
E|-3~--------------|-6~--------------|-1~--------------|-----------------| x2

E|-----------------|-----------------|-----------------|-----------------|
B|-0~--------------|-0~--------------|-3p0-----0~------|-----------------|
G|-0~--------------|-0~--------------|-----0-----------|-----------------|
D|-----------------|-----------------|-----------------|-----------------|
A|-----------------|-----------------|-----------------|-----------------|
E|-3~--------------|-6~--------------|-1-----1---------|-----------------|

END            
Submit corrections


        Silver Petals  lessons Hard to play? Try these video lessons and learn fast Silver Petals  lessons
        
↑ Back to top | Tablatures and chords for acoustic guitar and electric guitar, ukulele, drums are parodies/interpretations of the original songs. You may use it for private study, scholarship, research or language learning purposes only