» » »

The Sword - Seriously Mysterious Acoustic Tabs

Artists:  A B C D E F G H I J K L M N O P Q R S T U V W X Y Z # 

Seriously Mysterious Acoustic Tabs

(ver. 1) Click to play this song!
The Sword
 Rating:
4.4/5 (7 votes)

 Seriously Mysterious Acoustic lessons Tabs too difficult? Try these video lessons and learn fast
 
                {Chords}
   Ebm7   Dbsus2  Ab7   GbM7
Eb|--0------0------0------2---|
Db|--3------3------2------3---|
Gb|--0------2------0------0---|
Db|--2------0------2------0---|
Ab|--2-------------0------2---|
Eb|--0--------------------3---|




[Intro]
                     x4
Eb|--------------------|
Db|--------------------|
Gb|------0-------------|
Db|0h2-----2-0h2---2---|
Ab|--------------------|
Eb|----0---------0---0-|

[Verse]

Eb|--------------------|--------------------|--------------------|--------------------|
Db|--------------------|--------------------|------3---------3---|--------------------|
Gb|------0-------------|------0-------------|0h2-----2-0h2-----2-|------0-------------|
Db|0h2-----2-0h2---2---|0h2-----2-0h2---2---|----0---------0-----|0h2-----2-0h2---2---|
Ab|--------------------|--------------------|--------------------|--------------------|
Eb|----0---------0---0-|----0---------0---0-|--------------------|----0---------0---0-|

Eb|--------------------|--------------------|--------------------|--------------------|
Db|--------------------|------3---------3---|--------------------|--------------------|
Gb|------0-------------|0h2-----2-0h2-----2-|------2---------2---|------0-------------|
Db|0h2-----2-0h2---2---|----0---------0-----|--------2-----------|0h2-----2-0h2---2---|
Ab|--------------------|--------------------|3p0-0-----3p0-0-----|--------------------|
Eb|----0---------0---0-|--------------------|-----------------3b4|----0---------0---0-|
                           
Eb|--------------------|--------------------|--------------------|--------------------|
Db|------0---------0---|------0---------0---|--------------------|--------------------|
Gb|--------------------|--------------------|------2---------2---|------2--------2----|
Db|----4---4-----4---4-|----4---4-----4-----|--------2---------2-|--------2-----------|
Ab|0h2-------0h2-------|0h2-------0h2-------|----0---------0-----|----0---------0-----|
Eb|--------------------|-----------------3b4|0h3-------0h3-------|0h3-------0h3----3b4|

                     x2
Eb|--------------------|
Db|--------------------|
Gb|------0-------------|
Db|0h2-----2-0h2---2---|
Ab|--------------------|
Eb|----0---------0---0-|


[Chorus]
   Ebm7                 Dbsus2                 Ebm7                  Ab7
Eb|--------------------|----------------------|---------------------|-----------------------|
Db|--------------------|-------3---------3----|---------------------|-----------------------|
Gb|------0-------------|-0h2-----2-0h2-----2--|-------0-------------|-------2---------2-----|
Db|0h2-----2-0h2---2---|-----0---------0------|-0h2-----2-0h2---2---|---------2-------------|
Ab|--------------------|----------------------|---------------------|-3p0-0-----3p0-0-------|
Eb|----0---------0---0-|----------------------|-----0---------0---0-|-------------------3b4-|

   Ebm7                 Dbsus2                 GbM7                  Ab7                      
Eb|--------------------|----------------------|---------------------|-----------------------|
Db|--------------------|-------3---------3----|---------------------|-----------------------|
Gb|------0-------------|-0h2-----2-0h2-----2--|-------0---------0---|-------2---------2-----|
Db|0h2-----2-0h2---2---|-----0---------0------|---------0---------0-|---------2-------------|
Ab|--------------------|----------------------|-----2---------2-----|-3p0-0-----3p0-0-------|
Eb|----0---------0---0-|----------------------|-0h3-------0h3-------|-------------------3b4-|

                     x4
Eb|--------------------|
Db|--------------------|
Gb|------0-------------|
Db|0h2-----2-0h2---2---|
Ab|--------------------|
Eb|----0---------0---0-|

[Verse]

Eb|--------------------|--------------------|--------------------|--------------------|
Db|--------------------|--------------------|------3---------3---|--------------------|
Gb|------0-------------|------0-------------|0h2-----2-0h2-----2-|------0-------------|
Db|0h2-----2-0h2---2---|0h2-----2-0h2---2---|----0---------0-----|0h2-----2-0h2---2---|
Ab|--------------------|--------------------|--------------------|--------------------|
Eb|----0---------0---0-|----0---------0---0-|--------------------|----0---------0---0-|

Eb|--------------------|--------------------|--------------------|--------------------|
Db|--------------------|------3---------3---|--------------------|--------------------|
Gb|------0-------------|0h2-----2-0h2-----2-|------2---------2---|------0-------------|
Db|0h2-----2-0h2---2---|----0---------0-----|--------2-----------|0h2-----2-0h2---2---|
Ab|--------------------|--------------------|3p0-0-----3p0-0-----|--------------------|
Eb|----0---------0---0-|--------------------|-----------------3b4|----0---------0---0-|
                           
Eb|--------------------|--------------------|--------------------|--------------------|
Db|------0---------0---|------0---------0---|--------------------|--------------------|
Gb|--------------------|--------------------|------2---------2---|------2--------2----|
Db|----4---4-----4---4-|----4---4-----4-----|--------2---------2-|--------2-----------|
Ab|0h2-------0h2-------|0h2-------0h2-------|----0---------0-----|----0---------0-----|
Eb|--------------------|-----------------3b4|0h3-------0h3-------|0h3-------0h3----3b4|

                     x2
Eb|--------------------|
Db|--------------------|
Gb|------0-------------|
Db|0h2-----2-0h2---2---|
Ab|--------------------|
Eb|----0---------0---0-|

[Chorus]
   Em7                  Dsus2                  Em7                    A7
Eb|--------------------|----------------------|---------------------|-----------------------|
Db|--------------------|-------3---------3----|---------------------|-----------------------|
Gb|------0-------------|-0h2-----2-0h2-----2--|-------0-------------|-------2---------2-----|
Db|0h2-----2-0h2---2---|-----0---------0------|-0h2-----2-0h2---2---|---------2-------------|
Ab|--------------------|----------------------|---------------------|-3p0-0-----3p0-0-------|
Eb|----0---------0---0-|----------------------|-----0---------0---0-|-------------------3b4-|

   Em7                  Dsus2                  G                     A7                      
Eb|--------------------|----------------------|---------------------|-----------------------|
Db|--------------------|-------3---------3----|---------------------|-----------------------|
Gb|------0-------------|-0h2-----2-0h2-----2--|-------0---------0---|-------2---------2-----|
Db|0h2-----2-0h2---2---|-----0---------0------|---------0---------0-|---------2-------------|
Ab|--------------------|----------------------|-----2---------2-----|-3p0-0-----3p0-0-------|
Eb|----0---------0---0-|----------------------|-0h3-------0h3-------|-------------------3b4-|            
Submit corrections


        Seriously Mysterious Acoustic lessons Hard to play? Try these video lessons and learn fast Seriously Mysterious Acoustic lessons
        
↑ Back to top | Tablatures and chords for acoustic guitar and electric guitar, ukulele, drums are parodies/interpretations of the original songs. You may use it for private study, scholarship, research or language learning purposes only