» » »

The Sword - How Heavy This Axe Tabs

Artists:  A B C D E F G H I J K L M N O P Q R S T U V W X Y Z # 

How Heavy This Axe Tabs

(ver. 1) Click to play this song!
The Sword
 Rating:
4.3/5 (20 votes)

 How Heavy This Axe lessons Tabs too difficult? Try these video lessons and learn fast
 
                [Intro]

e|------------------8--6--------------------------------8--6------------------|
B|------------------8-----8--6-----6--------------------8-----8--6-----6------|
G|---/-8~-7---7-8----------------8-----8-7-8~-7---7-8----------------8-----8-7|
D|--------8------------------------------------8------------------------------|
A|----------------------------------------------------------------------------|
D|--------------0------------------------------------0------------------------|

e|---------------------------------------------------------------------------|
B|---------------------------------------------------------------------------|
G|---------------------------------------------------------------------------|
D|-----------------3-3-3-3-3-3-3--5-5-5-5--7-7--5-5-5-5-5-5-5-5--3-3-3-3-2~~~|
A|-5-5-5-5-5-5-5-5-----------------------------------------------------------|
D|---------------------------------------------------------------------------|
            
Submit corrections


        How Heavy This Axe lessons Hard to play? Try these video lessons and learn fast How Heavy This Axe lessons
        
↑ Back to top | Tablatures and chords for acoustic guitar and electric guitar, ukulele, drums are parodies/interpretations of the original songs. You may use it for private study, scholarship, research or language learning purposes only