Home » T » The Subways »

The Subways - We Dont Need Money To Have A Good Time Tabs

Artists:  A B C D E F G H I J K L M N O P Q R S T U V W X Y Z # 

We Dont Need Money To Have A Good Time Tabs

(ver. 3) Click to play this song!
The Subways
 Rating:
3.5/5 (24 votes)
                MainRiff:
e|----------------|---------------|---------------|------------|
B|----------------|---------------|---------------|------------|
G|-5---5\3-3--3/8-|-8--8\3-3--3/5-|-5--5\3-3--3/8-|-8----5--3--|  / x2
D|-5---5\3-3--3/8-|-8--8\3-3--3/5-|-5--5\3-3--3/8-|-8----5--3--|  
A|-3---3\1-1--1/6-|-6--6\1-1--1/3-|-3--3\1-1--1/6-|-8----3--1--|
E|----------------|---------------|---------------|------------|

Verse:
e|--|--|--|----------|
B|--|--|--|--8-----5-|
G|--|--|--|--8-----5-|  / x3
D|--|--|--|--6-----3-|
A|--|--|--|----------|
E|--|--|--|----------|

Pre-Chorus:
e|--|--|--|----------|
B|--|--|--|----------|
G|--|--|--|-----8--5-| // Do not use that sequence when playing 
D|--|--|--|-----8--5-| // Main-Riff as Verse 
A|--|--|--|-----6--3-|
E|--|--|--|----------|

e|-----------------|
B|-----------------|
G|-----------------|  / x3
D|-8-8-8-8-8-8-6-6-|
A|-8-8-8-8-8-8-6-6-|
E|-6-6-6-6-6-6-4-4-|

e|-----------------|
B|-----------------|
G|-----------------|
D|-8-8-8-8-9-9-9-9-|
A|-8-8-8-8-9-9-9-9-|
E|-6-6-6-6-7-7-7-7-|

Chorus:
e|------------|------------|------------|-------------|
B|------------|------------|------------|-------------|
G|-5--5--5--5-|-7--7--7--7-|-8--8--8--8-|-10-10-10-10-| / x4
D|-5--5--5--5-|-7--7--7--7-|-8--8--8--8-|-10-10-10-10-|
A|-3--3--3--3-|-5--5--5--5-|-6--6--6--6-|--8--8--8--8-|
E|------------|------------|------------|-------------|

Chorus 2:
e|------------|--|--|--|
B|------------|--|--|--|
G|-5----------|--|--|--|
D|-5----------|--|--|--|
A|-3----------|--|--|--|
E|------------|--|--|--|

e|------------|------------|------------|-------------|
B|------------|------------|------------|-------------|
G|-5--5--5--5-|-7--7--7--7-|-8--8--8--8-|-10-10-10-10-| / x7
D|-5--5--5--5-|-7--7--7--7-|-8--8--8--8-|-10-10-10-10-|
A|-3--3--3--3-|-5--5--5--5-|-6--6--6--6-|--8--8--8--8-|
E|------------|------------|------------|-------------|

Order:
Main-Riff
Verse
Pre-Chorus
Chorus
Main-Riff
Verse
Pre-Chorus
Chorus
Main-Riff (x2 for Verse)
Pre-Chorus
Chorus 2
Main-Riff            
Submit corrections

↑ Back to top | Tablatures and chords for acoustic guitar and electric guitar, ukulele, drums are parodies/interpretations of the original songs. You may use it for private study, scholarship, research or language learning purposes only