Home » T » The Subways »

The Subways - We Dont Need Money To Have A Good Time Bass

Artists:  A B C D E F G H I J K L M N O P Q R S T U V W X Y Z # 

We Dont Need Money To Have A Good Time Bass

(ver. 1) Click to play this song!
The Subways
 Rating:
4/5 (4 votes)
                G:|----------------|----------------|
D:|-----GUITAR-----|-----GUITAR-----|
A:|----------------|----------------|
E:|----------------|----------------|  

.................................................................................
G:|----------------|----------------|                                           .
D:|----------------|----------------|                                           .
A:|--------6-6-----|--------6-------|                                           .
E:|8-8-6-6-----6-6-|8-8-6-6---6-8-6-|                                           .
                                                                                .
G:|----------------|----------------|     |----------------|----------------|   .
D:|----------------|----------------|     |----------------|----------------|   .
A:|----------------|----------------|     |----------------|----------------|   .
E:|8---------------|------------6---|..3x |8---------------|------------8---|   .
                                                                                ...2x
G:|----------------|      |----------------|                                    .
D:|----------------|      |----------------|                                    .
A:|----------------|      |----------------|                                    .
E:|6-6-6-6-6-6-4-4-|..3x  |6-6-6-6-7-7-7-7-|                                    .
                                                                                .
G:|----------------|----------------|                                           .
D:|----------------|----------------|                                           .
A:|----------------|----------------|                                           .
E:|8-8-8-8-6-6-6-6-|4-4-4-4-1-1-1-1-|..4x                                       .
.................................................................................

G:|----------------|----------------|----------------|----------------|
D:|----------------|----------------|----------------|----------------|
A:|----------------|----------------|----------------|----------------|
E:|8---------------|------------8-6-|8---------------|------------8-6-|

G:|----------------|----------------|
D:|----------------|----------------|
A:|--------6-6-----|--------6-------|
E:|8-8-6-6-----6-6-|8-8-6-6---6-8-6-|..2x

G:|----------------|      |----------------|
D:|----------------|      |----------------|
A:|----------------|      |----------------|
E:|6-6-6-6-6-6-4-4-|..3x  |6-6-6-6-7-7-7-7-|

G:|----------------|
D:|----------------|
A:|----------------|
E:|8---------------|

G:|----------------|----------------|
D:|----------------|----------------|
A:|----------------|----------------|
E:|8-8-8-8-6-6-6-6-|4-4-4-4-1-1-1-1-|..4x

G:|--------------10|----------------|
D:|----10------8---|----------------|
A:|--10--8---8-----|----------------|
E:|8-------6-------|4-4-6-6-1-1-1-1-|..4x

G:|----------------|----------------|     |----------------| 
D:|----------------|----------------|     |----------------| 
A:|--------6-6-----|--------6-------|     |----------------| 
E:|8-8-6-6-----6-6-|8-8-6-6---6-8-6-|..2x |8---------------| 
            
Submit corrections

↑ Back to top | Tablatures and chords for acoustic guitar and electric guitar, ukulele, drums are parodies/interpretations of the original songs. You may use it for private study, scholarship, research or language learning purposes only