» » »

The Sound Of Animals Fighting - On The Occasion Of Wet Snow Tabs

Artists:  A B C D E F G H I J K L M N O P Q R S T U V W X Y Z # 

On The Occasion Of Wet Snow Tabs

(ver. 2) Click to play this song!
The Sound Of Animals Fighting
 Rating:
4/5 (4 votes)

 On The Occasion Of Wet Snow lessons Tabs too difficult? Try these video lessons and learn fast
 
                TUNING DROP C#/DROP Db




1:17-1:28

Eb-----------------------------------------|
Bb---------6-6-6-6---------9-9-9-9---------|
Gb-----5-5-5-5-5-5-----8-8-8-8-8-8---------|
Db-3-3-3-3-3-3-3-3-6-6-6-6-6-6-6-6-7-6-5-4-|
Ab-3-3-3-3-3-3-3-3-6-6-6-6-6-6-6-6-7-6-5-4-|
Db-3-3-3-3-3-3-3-3-6-6-6-6-6-6-6-6-7-6-5-4-|



2:16-2:27

Eb-----------------------------------------|
Bb---------6-6-6-6---------9-9-9-9---------|
Gb-----5-5-5-5-5-5-----8-8-8-8-8-8---------|
Db-3-3-3-3-3-3-3-3-6-6-6-6-6-6-6-6-7-6-5-4-|
Ab-3-3-3-3-3-3-3-3-6-6-6-6-6-6-6-6-7-6-5-4-|
Db-3-3-3-3-3-3-3-3-6-6-6-6-6-6-6-6-7-6-5-4-|




2:29-3:02

Eb---------------------------------------------------|
Bb---------------------------------------------------|
Gb---------------------------------------------------|
Db---------------------------------------------------|
Ab-7-7-10-10-12-12-------3-0-----3-0-7-7-10-10-12-12-|
Db-7-7-10-10-12-12---0-3-----0-3-----7-7-10-10-12-12-|


Eb-----------------------------------------------------|
Bb-----------------------------------------------------|
Gb---------------------9-9-12-12-14-14-----------------|
Db-----------------2-0-7-7-10-10-12-12-----------------|
Ab-----3-0-----3-0-----7-7-10-10-12-12------3-0----3-0-|
Db-0-3-----0-3---------7-7-10-10-12-12--0-3-----0-3----|


Eb-------------------------------------------------|
Bb-------------------------------------------------|
Gb-------------------------------------------------|
Db-----------------------------------2-0-----------|
Ab-7-7-10-10-12-12-------3-0-----3-0---------------|
Db-7-7-10-10-12-12---0-3-----0-3-------------------|


Eb---------------------------------------------------|
Bb---------------------------------------------------|
Gb---------------------------------------------------|
Db---------------------------------------------------|
Ab-7-7-10-10-12-12-------3-0-----3-0-7-7-10-10-12-12-|
Db-7-7-10-10-12-12---0-3-----0-3-----7-7-10-10-12-12-|


Eb-------------------------------------------------|
Bb-------------------------------------------------|
Gb-------------------------------------------------|
Db-------------------------------------------------|
Ab-----3-0----3-0--5h7p5p3h5p3p0--7-7-10-10-12-12--|
Db-0-3-----0-3--------------------7-7-10-10-12-12--|


Eb-----------------------------------------------------|
Bb-----------------------------------------------------|
Gb-----------------------------------------------------|
Db-------------------------------------------------2-0-|
Ab-----3-0-----3-0-7-7-10-10-12-12-----3-0-----3-0-----|
Db-0-3-----0-3-----7-7-10-10-12-12-0-3-----0-3---------|




3:02-3:16

Eb-------------------------------------------------|
Bb-------------------------------------------------|
Gb-7--------------7--------------------------------|
Db-------------------------------------------------|
Ab-5--5--0--------5--5--0--------------------------|
Db----5--0-----------5--0--------------------------|



3:17- (something like this)

Eb-------------------------------------------------|
Bb-------------------------------------------------|
Gb------------------------5h6h7--------------------|
Db---------t15/16/19\17----------------------------|
Ab-5-7/8-------------------------------------------|
Db-------------------------------------------------|



4:23- (solo type riff goes like this, figure it out yourself)

Eb-----------------------------------------------------|
Bb-----------------------------------------------------|
Gb------9/11-12--16-14-12-11--12\9-11\7----------------|
Db-----------------------------------------------------|
Ab-0---------------------------------------------------|
Db-0---------------------------------------------------|


Eb--------------------------------------------------|
Bb--------------------------------------------------|
Gb--7-7-7/9/11/12\11--------------------------------|
Db--------------------------------------------------|
Ab--------------------------------------------------|
Db--------------------------------------------------|



6:22-end (heres the tab, work the patterns out yourself)

Eb-----------------------------------------------------------------|
Bb-----------------------------------------------------------------|
Gb-----------------------------------------------------------------|
Db-----------------------------------------5---5-5-5-5-5-----------|
Ab-0--0-0-0-0-4/5\4---4--7--9-0-4----3---3-3-3-3-3-----------------|
Db-0--0-0-0-0-4/5\4---4--7--9-0-4----------------------------------|


I worked this out by ear because there was no tab for this wicked song.
You work out the rest.
            
Submit corrections


        On The Occasion Of Wet Snow lessons Hard to play? Try these video lessons and learn fast On The Occasion Of Wet Snow lessons
        
↑ Back to top | Tablatures and chords for acoustic guitar and electric guitar, ukulele, drums are parodies/interpretations of the original songs. You may use it for private study, scholarship, research or language learning purposes only