» » »

The Sleeping - Don't Hold Back Tabs

Artists:  A B C D E F G H I J K L M N O P Q R S T U V W X Y Z # 

Don't Hold Back Tabs

(ver. 3) Click to play this song!
The Sleeping
 Rating:
4.8/5 (19 votes)

 Don't Hold Back lessons Tabs too difficult? Try these video lessons and learn fast
 
                ----------------------------------------------------------------------------
                             DON'T HOLD BACK - The Sleeping
----------------------------------------------------------------------------



************************************************************************
This song is on Guitar Hero III as a bonus track, and its a pretty cool
song, but no one had a tab for it so.... here it is.
************************************************************************

Tuning: Down 1/2 step

INTRO

e|-------------------------------------------------------------------------|
B|-------------------------------------------------------------------------|
G|-------------------------------------------------------------------------|
D|-------------------------------------------------------------------------|
A|-------------------------------------------------------------------------|
E|-3h5-3h5-3-5-3-5---3h5-3h5-3-5-3-5---3h5-5h8-7-5---3h5-5h8-7-5-----------|

e|-------------------------------------------------------------------------|
B|-------------------------------------------------------------------------|
G|--------------------------------------------------------------5-4\-------|
D|-------------------------------------------------------5h7-7-------------|
A|-------------------------------------5h7-5h7-5-7-5-7---------------------|
E|-5h8-5h8-5-8-5-8---5h8-5h8-5-8-5-8---------------------------------------|

REPEAT except 2nd part changes to this

e|-------------------------------------------------------------------------|
B|-------------------------------------------------------------------------|
G|-------------------------------------------------------------------------|
D|-------------------------------------------------------5h7-5h7~----------|
A|-------------------------------------5h7-5h7-5-7-5-7---------------------|
E|-5h8-5h8-5-8-5-8---5h8-5h8-5-8-5-8---------------------------------------|

VERSE

e|8---------8-------8------------------------------------------------------|
B|------------------------8---------8-------8-----0---------0-------0------|
G|--5---------5-------------5---------5-------------5---------5------------|
D|----7---------7-----7-------7---------7-----7-------7---------7-----7----|
A|-------------------------------------------------------------------------|
E|-------------------------------------------------------------------------|

e|8-----8------8-----------------------------------------------------------|
B|----------------------8--------8-------8---------------------------------|
G|--5-----5---------------5--------5---------------------------------------|
D|----7-----7----7----------7--------7-----7-------------------------------|
A|--------------------------------------------------5-----7-----7--7-------|
E|--------------------------------------------5--7-----7-----8-------------|

e|-------------------------------------------------------------------------|
B|----------------------------------------------0--------0-----------------|
G|-------------------------------------------------5-----------------------|
D|----------------------------------------------------7--------------------|
A|------5--------7---------------------------------------------------------|
E|5--7-----7--8-----8--7--7--7--7--7--7--5--3------------------------------|

e|8---------8-------8------------------------------------------------------|
B|------------------------8---------8-------8-----0---------0-------0------|
G|--5---------5-------------5---------5-------------5---------5------------|
D|----7---------7-----7-------7---------7-----7-------7---------7-----7----|
A|-------------------------------------------------------------------------|
E|-------------------------------------------------------------------------|

e|8-----8------8-----------------------------------------------------------|
B|-------------------8------8-------8--------------------------------------|
G|--5-----5------------5------5--------------------------------------------|
D|----7-----7----7-------7------7-----7------------------------------------|
A|-----------------------------------------------5--------7--7--7----------|
E|-----------------------------------------5--7-----7--8-----------3--5--5-|

e|-------------------------------------------------------------------------|
B|------------------------------------------0--------0---------0-----------|
G|---------------------------------------------5--------5------------------|
D|------------------------------------------------7--------7---------------|
A|------5--5--5--5--7----5--3--3--5--3-------------------------------------|
E|5--5----------------------------------3----------------------------------|

e|8---------8-------8------------------------------------------------------|
B|------------------------8---------8-------8-----0-------0--------0---0---|
G|--5---------5-------------5---------5-------------5-------5------5---5---|
D|----7---------7-----7-------7---------7-----7-------7-------7----7---7---|
A|-------------------------------------------------------------------------|
E|-------------------------------------------------------------------------|

e|8---------8-------8------------------------------------------------------|
B|------------------------8---------8-------8------------------------------|
G|--5---------5-------------5---------5------------------------------------|
D|----7---------7-----7-------7---------7-----7----------------------------|
A|-------------------------------------------------------------------------|
E|-------------------------------------------------------------------------|

e|-------------------------------------------------------------------------|
B|-------------------------------------------------------------------------|
G|-------------------------------------------------------------------------|
D|---------------------------------7---------------------------------------|
A|------5--------7--------5------------------------------------------------|
E|5--7-----7--8-----8--7-----7--5-----5------------------------------------|

CHORUS (X2)

e|-------------------------------------------------------------------------|
B|-------------------------------------------------------------------------|
G|5--5--5--5--5--5--5--5--5----7----7--7--9--7--7--9--7--7--7--5--7--9--9--|
D|7--7--7--7--7--7--7--7--7----x----x--x--x--x--x--x--x--x--x--x--x--x--x--|
A|0--0--0--0--0--0--0--0--0----5----5--5--7--5--5--7--5--5--5--3--5--7--7--|
E|-------------------------------------------------------------------------|
              *  *  *  *  *

e|---------------------------5--5--5--3---5--3-----------------------------|
B|---------------------------0--0--0--0---0--0-----------------------------|
G|------------------------5------------------------------------------------|
D|3--3--3--3--3--3--3--3---------------------------------------------------|
A|3--3--3--3--3--3--3--3---------------------------------------------------|
E|1--1--1--1--1--1--1--1---------------------------------------------------|

INTRO again

e|-------------------------------------------------------------------------|
B|-------------------------------------------------------------------------|
G|-------------------------------------------------------------------------|
D|-------------------------------------------------------------------------|
A|-------------------------------------------------------------------------|
E|-3h5-3h5-3-5-3-5---3h5-3h5-3-5-3-5---3h5-5h8-7-5---3h5-5h8-7-5-----------|

e|-------------------------------------------------------------------------|
B|-------------------------------------------------------------------------|
G|-------------------------------------------------------------------------|
D|-------------------------------------------------------5h7-5h7~----------|
A|-------------------------------------5h7-5h7-5-7-5-7---------------------|
E|-5h8-5h8-5-8-5-8---5h8-5h8-5-8-5-8---------------------------------------|

VERSE TWO

e|8---------8-------8------------------------------------------------------|
B|------------------------8---------8-------8-----0---------0-------0------|
G|--5---------5-------------5---------5-------------5---------5------------|
D|----7---------7-----7-------7---------7-----7-------7---------7-----7----|
A|-------------------------------------------------------------------------|
E|-------------------------------------------------------------------------|

e|8-----8------8-----------------------------------------------------------|
B|-------------------8------8-------8--------------------------------------|
G|--5-----5------------5------5--------------------------------------------|
D|----7-----7----7-------7------7-----7------------------------------------|
A|-----------------------------------------------5--------7--7--7----------|
E|-----------------------------------------5--7-----7--8-----------3--5--5-|

e|-------------------------------------------------------------------------|
B|------------------------------------------0--------0---------0-----------|
G|---------------------------------------------5--------5------------------|
D|------------------------------------------------7--------7---------------|
A|------5--5--5--5--7----5--3--3--5--3-------------------------------------|
E|5--5----------------------------------3----------------------------------|

e|8---------8-------8------------------------------------------------------|
B|------------------------8---------8-------8-----0-------0--------0---0---|
G|--5---------5-------------5---------5-------------5-------5------5---5---|
D|----7---------7-----7-------7---------7-----7-------7-------7----7---7---|
A|-------------------------------------------------------------------------|
E|-------------------------------------------------------------------------|

e|8---------8-------8------------------------------------------------------|
B|------------------------8---------8-------8------------------------------|
G|--5---------5-------------5---------5------------------------------------|
D|----7---------7-----7-------7---------7-----7----------------------------|
A|-------------------------------------------------------------------------|
E|-------------------------------------------------------------------------|

e|-------------------------------------------------------------------------|
B|-------------------------------------------------------------------------|
G|-------------------------------------------------------------------------|
D|---------------------------------7---------------------------------------|
A|------5--------7--------5------------------------------------------------|
E|5--7-----7--8-----8--7-----7--5-----5------------------------------------|

REPEAT CHORUS (X2) - end should go like this

e|-------------------------------------------------------------------------|
B|------------------------------(stop)-------------------------------------|
G|------------------------7------------------------------------------------|
D|3--3--3--3--3--3--3--3---------------------------------------------------|
A|3--3--3--3--3--3--3--3---------------------------------------------------|
E|1--1--1--1--1--1--1--1---------------------------------------------------|

e|-------------------------------------------------------------------------|
B|-------------------------------------------------------------------------|
G|-------------------------------------------------------------------------|
D|5--------------5---------------5-------------------------5---------------|
A|------------------------------------------------5--5--5------------------|
E|---5--5--3--5-----5--5--3--5------5--5--3--5----5--5--5-----5--5--3--5---|
                                                  *  *  *

INTERLUDE

e|-------------------------------------------------------------------------|
B|-------------------------------------------------------------------------|
G|-------------------------------------------------------------------------|
D|-------------------------------------------------------------------------|
A|------------------5--5-----7--5--5--5--5--5--5---------------------------|
E|5--5--7--7--8--8--------5-----------------------5--5--5------------------|

e|-------------------------------------------------------------------------|
B|-------------------------------------------------------------------------|
G|-------------------------------------------------------------------------|
D|-------------------------------------------------------------------------|
A|---7--5--3--5--3--5--5--7--7---------------------------------------------|
E|5-----------------------------5--5--5------------------------------------|


REPEAT CHORUS (X2)


OUTRO

e|-------------------------------------------------------------------------|
B|-------------------------------------------------------------------------|
G|-------------------------------------------------------------------------|
D|-------------------------------------------------------------------------|
A|-------------------------------------------------------------------------|
E|-3h5-3h5-3-5-3-5---3h5-3h5-3-5-3-5---3h5-5h8-7-5---3h5-5h8-7-5-----------|

e|-------------------------------------------------------------------------|
B|-------------------------------------------------------------------------|
G|-------------------------------------------------------------------------|
D|-------------------------------------------------------7-----------------|
A|-------------------------------------5h7-5h7-5-7-5-7---------------------|
E|-5h8-5h8-5-8-5-8---5h8-5h8-5-8-5-8------------------------8--7--3~-------|



| *  palm mute
| /  slide up
| \  slide down
| h  hammer-on
| p  pull-off
| ~  vibrato
| +  harmonic
| x  Mute note
============================================================================
            
Submit corrections


        Don't Hold Back lessons Hard to play? Try these video lessons and learn fast Don't Hold Back lessons
        
↑ Back to top | Tablatures and chords for acoustic guitar and electric guitar, ukulele, drums are parodies/interpretations of the original songs. You may use it for private study, scholarship, research or language learning purposes only