Home » T » The Sigit »

The Sigit - Horse Tabs

Artists:  A B C D E F G H I J K L M N O P Q R S T U V W X Y Z # 

Horse Tabs

(ver. 1) Click to play this song!
The Sigit
               The Sigit - Horse

This is my very first tab. Hope it's good. Play this fast.

E------------------------------------------------------|
B------------------------------------------------------|
G-7(9)-7-5-7-5--7(9)-7-5-7----7(9)-7-5-7-5--7-7(9)-9---|
D--------------------------5---------------------------|
A------------------------------------------------------|
E------------------------------------------------------|

E---------------------------------------------------------|
B---------------------------------------------------------|
G-7(9)-7-5-7-5--7(9)-7-5-7----7(9)-7-5-7-5----------------|
D--------------------------5------------------------------|
A---------------------------------------------------------|
E-------------------------------------------12 slide to 0-|

E------------12-----------------------------------|
B------8h10-----15-13-15-13----------------7557---|
G--7------------------------14---------5---7557---|
D----------------------------------5-7---7------7-|
A--------------------------------7--------------7-|
E-------------------------------------------------|

Well, that's all for that. If you find anything wrong, please let me know.
            
Submit corrections

↑ Back to top | Tablatures and chords for acoustic guitar and electric guitar, ukulele, drums are parodies/interpretations of the original songs. You may use it for private study, scholarship, research or language learning purposes only