Home » T » The Ronettes »

The Ronettes - Be My Baby Bass

Artists:  A B C D E F G H I J K L M N O P Q R S T U V W X Y Z # 

Be My Baby Bass

(ver. 2) Click to play this song!
The Ronettes
Gtr I (E A D G) - 'Ray Pohlman - Bass'


 Intro
  Q=126
 4/4
  Gtr I
  Wx2          E E E E Q  Q    E E E E Q  Q
|------------|---------------|---------------||
|------------|-2-2-2-4-2-----|-2-2-2-4-2-----||
|------------|------------2--|------------2--||
|------------|---------------|---------------||


   1st & 2nd Verses
    E E E E Q  Q    E E E E Q  Q    E E E E Q  Q    E E E E Q  Q
||----------------|---------------|---------------|---------------|
||o-2-2-2-4-2-----|-2-2-2-4-2-----|-4-4-4-6-4-----|---------------|
||o------------2--|------------2--|------------4--|-2-2-2-4-2--0--|
||----------------|---------------|---------------|---------------|


  E E E E Q  Q    E E E E Q  Q    E E E E Q  Q    E E E E Q  Q
|---------------|---------------|---------------|----------------|
|-2-2-2-4-2-----|-2-2-2-4-2-----|-4-4-4-6-4-----|----------------|
|------------2--|------------2--|------------4--|-2-2-2-4-2--0---|
|---------------|---------------|---------------|----------------|


  E E E E Q  Q    E E E E Q  Q    E E E E Q  Q    E E E E Q  Q
|-1-1-1-3-1-----|-1-1-1-3-1-----|---------------|----------------|
|------------2--|------------2--|---------------|----------------|
|---------------|---------------|-4-4-4-6-4-----|-4-4-4-6-4------|
|---------------|---------------|------------4--|------------4---|


  E E E E Q  Q    E E E E Q  Q    E E E E Q  Q    E E E E Q  Q
|---------------|---------------|---------------|----------------||
|-4-4-4-6-4-----|-4-4-4-6-4-----|---------------|----------------||
|------------4--|------------4--|-2-2-2-4-2-----|-2-2-2-4-2------||
|---------------|---------------|------------2--|------------2---||


 Chorus
  $
  E E E E Q  Q    E E E E Q  Q    E E E E Q  Q    E E E E Q  Q
|---------------|---------------|---------------|----------------|
|-2-2-2-4-2-----|-2-2-2-4-2-----|---------------|----------------|
|------------2--|------------2--|-4-4-4-6-4-----|-4-4-4-6-4------|
|---------------|---------------|------------4--|------------4---|


                                                        To Coda
  E E E E Q  Q    E E E E Q  Q    E E E E Q  Q    E E E E Q  Q
|-2-2-2-4-2-----|-2-2-2-4-2-----|---------------|-----------------||
|------------2--|------------2--|---------------|----------------o||
|---------------|---------------|-2-2-2-4-2--0--|-2-2-2-4-2--0---o||
|---------------|---------------|---------------|-----------------||


   Interlude
                                                   1.
    E E E E Q  Q    E E E E Q  Q    E E E E Q  Q    E E E E Q  Q
||----------------|---------------|---------------|----------------||
||o-2-2-2-4-2-----|-2-2-2-4-2-----|-4-4-4-6-4-----|---------------o||
||o------------2--|------------2--|------------4--|-2-2-2-4-2--0--o||
||----------------|---------------|---------------|----------------||


                                 Outro
  2.
   D.S. al Coda &
  E E E E Q  Q     Wx2            E E E E Q  Q
|---------------||------------||----------------|
|---------------||------------||o-2-2-2-4-2-----|
|-2-2-2-4-2--0--||------------||o------------2--|
|---------------||------------||----------------|


  E E E E Q  Q    E E E E Q  Q    E E E E Q  Q    E E E E Q  Q
|---------------|---------------|---------------|-2-2-2-4-2------|
|-2-2-2-4-2-----|---------------|---------------|------------2---|
|------------2--|-4-4-4-6-4-----|-4-4-4-6-4-----|----------------|
|---------------|------------4--|------------4--|----------------|


  E E E E Q  Q    E E E E Q  Q    E E E E Q  Q
|-2-2-2-4-2-----|---------------|----------------||
|------------2--|---------------|---------------o||
|---------------|-2-2-2-4-2--0--|-2-2-2-4-2--0--o||
|---------------|---------------|----------------||            
Submit corrections

↑ Back to top | Tablatures and chords for acoustic guitar and electric guitar, ukulele, drums are parodies/interpretations of the original songs. You may use it for private study, scholarship, research or language learning purposes only