Home » T » The Ronettes »

The Ronettes - Be My Baby Bass

Artists:  A B C D E F G H I J K L M N O P Q R S T U V W X Y Z # 

Be My Baby Bass

(ver. 1) Click to play this song!
The Ronettes
 Rating:
4/5 (4 votes)
                Intro
G-----------------------------------------------------------------|
D-----------------------------------------------------------------|
A-7-7-7-7-7-7-7-7-7-7-7-7-7-7-7-7-7-7-7-7-7-7-7-7-7-7-7-7-7-7-7-7-|
E-----------------------------------------------------------------|

Verse
G-----------------------------------------------------------------|
D-----------------------------------------------------------------|
A-7-7-7-7-7-7-7-7-7-7-7-7-7-7-7-7-9-9-9-9-9-9-9-9-----------------|
E-------------------------------------------------7-7-7-7-7-7-7-7-|

G-----------------------------------------------------------------|
D-----------------------------------------------------------------|
A-7-7-7-7-7-7-7-7-7-7-7-7-7-7-7-7-9-9-9-9-9-9-9-9-----------------|
E-------------------------------------------------7-7-7-7-7-7-7-7-|

G-----------------------------------------------------------------|
D-----------------------------------------------------------------|
A---------------------------------4-4-4-4-4-4-4-4-4-4-4-4-4-4-4-4-|
E-4-4-4-4-4-4-4-4-4-4-4-4-4-4-4-4---------------------------------|

G-----------------------------------------------------------------|
D-----------------------------------------------------------------|
A---------------------------------2-2-2-2-2-2-2-2-2-2-2-2-2-2-2-2-|
E-2-2-2-2-2-2-2-2-2-2-2-2-2-2-2-2---------------------------------|

Chorus
G-----------------------------------------------------------------|
D-----------------------------------------------------------------|
A-7-7-7-7-7-7-7-7-7-7-7-7-7-7-7-7-4-4-4-4-4-4-4-4-4-4-4-4-4-4-4-4-|
E-----------------------------------------------------------------|

G-----------------------------------------------------------------|
D-----------------------------------------------------------------|
A-0-0-0-0-0-0-0-0-0-0-0-0-0-0-0-0-2-2-2-2-2-2-2-2-2-2-2-2-2-2-2-2-|
E-----------------------------------------------------------------|

Verse
G-----------------------------------------------------------------|
D-----------------------------------------------------------------|
A-7-7-7-7-7-7-7-7-7-7-7-7-7-7-7-7-9-9-9-9-9-9-9-9-----------------|
E-------------------------------------------------7-7-7-7-7-7-7-7-|

G-----------------------------------------------------------------|
D-----------------------------------------------------------------|
A-7-7-7-7-7-7-7-7-7-7-7-7-7-7-7-7-9-9-9-9-9-9-9-9-----------------|
E-------------------------------------------------7-7-7-7-7-7-7-7-|

G-----------------------------------------------------------------|
D-----------------------------------------------------------------|
A---------------------------------4-4-4-4-4-4-4-4-4-4-4-4-4-4-4-4-|
E-4-4-4-4-4-4-4-4-4-4-4-4-4-4-4-4---------------------------------|

G-----------------------------------------------------------------|
D-----------------------------------------------------------------|
A---------------------------------2-2-2-2-2-2-2-2-2-2-2-2-2-2-2-2-|
E-2-2-2-2-2-2-2-2-2-2-2-2-2-2-2-2---------------------------------|

Chorus
G-----------------------------------------------------------------|
D-----------------------------------------------------------------|
A-7-7-7-7-7-7-7-7-7-7-7-7-7-7-7-7-4-4-4-4-4-4-4-4-4-4-4-4-4-4-4-4-|
E-----------------------------------------------------------------|

G-----------------------------------------------------------------|
D-----------------------------------------------------------------|
A-0-0-0-0-0-0-0-0-0-0-0-0-0-0-0-0-2-2-2-2-2-2-2-2-2-2-2-2-2-2-2-2-|
E-----------------------------------------------------------------|

Interlude
G-----------------------------------------------------------------|
D-----------------------------------------------------------------|
A-7-7-7-7-7-7-7-7-7-7-7-7-7-7-7-7-9-9-9-9-9-9-9-9-----------------|
E-------------------------------------------------7-7-7-7-7-7-7-7-|

G-----------------------------------------------------------------|
D-----------------------------------------------------------------|
A-7-7-7-7-7-7-7-7-7-7-7-7-7-7-7-7-9-9-9-9-9-9-9-9-----------------|
E-------------------------------------------------7-7-7-7-7-7-7-7-|

Chorus/Outro (repeat and fade)
G-----------------------------------------------------------------|
D-----------------------------------------------------------------|
A-7-7-7-7-7-7-7-7-7-7-7-7-7-7-7-7-4-4-4-4-4-4-4-4-4-4-4-4-4-4-4-4-|
E-----------------------------------------------------------------|

G-----------------------------------------------------------------|
D-----------------------------------------------------------------|
A-0-0-0-0-0-0-0-0-0-0-0-0-0-0-0-0-2-2-2-2-2-2-2-2-2-2-2-2-2-2-2-2-|
E-----------------------------------------------------------------|
            
Submit corrections

↑ Back to top | Tablatures and chords for acoustic guitar and electric guitar, ukulele, drums are parodies/interpretations of the original songs. You may use it for private study, scholarship, research or language learning purposes only