Home » T » The Rifles »

The Rifles - Shes Got Standards Bass

Artists:  A B C D E F G H I J K L M N O P Q R S T U V W X Y Z # 

Shes Got Standards Bass

(ver. 1) Click to play this song!
The Rifles
 Rating:
3.7/5 (6 votes)
                the rifles - she's got standards (bass tab)

Intro

(you can hit this Harmonic Chord over the open E...)

G- ----------------------4~~--~~
D------------------------4~~--~~
A -----------------------4~~--~~
E 0 Let Ring------------------~~


G -------------------------------------------------|
D -------------------------------------------------|
A -5 5 5 5555556777777765555555567777777------556--|
E ----------------------------------------7777---0-|

Let Ring......

Pre Chorus Riff..play under the Solo too..

G ----------------------------------------------|
D -----7-9-7-------7-9-7-----7-9-7--------------|
A 7-77------7-7-77-------------------------5555-|
E------------------------7-77------7-7-77-------|

Chorus..

G ---------------------------------------|
D ---------------------------------------|
A -------------------------7777-5-7777-5-|
E 555555555555-3-------------------------|
            
Submit corrections

↑ Back to top | Tablatures and chords for acoustic guitar and electric guitar, ukulele, drums are parodies/interpretations of the original songs. You may use it for private study, scholarship, research or language learning purposes only