Home » T » The Rifles »

The Rifles - One Night Stand Bass

Artists:  A B C D E F G H I J K L M N O P Q R S T U V W X Y Z # 

One Night Stand Bass

(ver. 1) Click to play this song!
The Rifles
-------------------------------------------------------------------------------
-------------------------------------------------------------------------------


Tuning: E A D G

Intro
G|-------------------------------------|
D|-------------------------------------|
A|-5-5-5-5--5-5-5-5/9-9-9-9--9-9-9-12--|
E|-------------------------------------|

G|-------------------------------------|
D|-------------------------------------|
A|-5-5-5-5--5-5-5-5/9-9-9-9--9-12-9-7--|
E|-------------------------------------|

G|-----------------------------------|
D|-----------------------------------|
A|-5-5-555-5-4------9-9-999-9-7-9-7--|
E|-------------5-7-------------------| (2x)

Intro end / post chorus
G|--------------------------------------------------|
D|------------------7-7---7-7-7-5--7-7-7------------|
A|-10-10-99-77-55-----------------------------7-4-5-|
E|-----------------5---5----------------5--7-5------|

Verse
G|-----------------------------------------------------------------------|
D|--------------7-9---------------7-9------------------------------------|
A|-5-5-555--5-5------5-5-555--5-5-------9-9-999--9-9--7--9-9-999--9-9--7-|
E|---------------------------------------------------9----------------9--|

G|------------------------------------------------------------------------|
D|--------------7-9---------------7-9-------------------------------------|
A|-5-5-555--5-5------5-5-555--5-5-------9-9-999--9-9--7--9-9-999--9-7-----|
E|---------------------------------------------------9----------------9-7-|

Pre-Chorus
G|-------------------------------------------------------------------------|
D|-------------------------------------------------------------------------|
A|-------------------------------------------------------------------------|
E|-3-3-3-3-3-3-3-3--5-5-7-7-9-99-99---3-3-3-3-3-3-3-3--5-5-7-7-9-1010-1012-|

Chorus
G|----------------------------------|
D|----------------------------------|
A|-5-5-555-5-5-5-7--9-9-999-9-7-9-7-|
E|----------------------------------|

Break
G|----------------------------------|
D|----------------------------------|
A|0/5-5-5-5-5-5-5-5--9--9--9-12-9-7-|
E|----------------------------------|

G|-----------------------------------|
D|-----------------------------------|
A|-5-5-555-5-4------9-9-999-9-7-9-7--|
E|-------------5-7-------------------| (2x)

G|---------------------------------------|
D|---------------------------------------|
A|-5~--9~--10~--12-12-12-12-12-12-12-12--|
E|---------------------------------------|

Outro
G|-------------------------------------------------------------------------------------|
D|------------------7-7---7-7-7-5--7-7-7-7-7-7-7-5--7-7-7-7-7-7-7-5--7-5-4-5-4--4------|
A|-10-10-99-77-55--------------------------------------------------------------7--7-5~-|
E|-----------------5---5---------------------------------------------------------------|


Intro x1
Intro End x1
Verse x1
Pre-Chorus x1
Chorus x2
Post Chorus x1
Verse x1 
Pre-Chorus x1
Chorus x2
Post chorus x1
Break x1
Chorus x4
Outro x1


| /  slide up
| \  slide down
| h  hammer-on
| p  pull-off
| ~  hold note
| +  harmonic
| x  Mute note
===============================================================================
            
Submit corrections

↑ Back to top | Tablatures and chords for acoustic guitar and electric guitar, ukulele, drums are parodies/interpretations of the original songs. You may use it for private study, scholarship, research or language learning purposes only