» » »

The Ready Set - Love Like Woe Tabs

Artists:  A B C D E F G H I J K L M N O P Q R S T U V W X Y Z # 

Love Like Woe Tabs

(ver. 1) Click to play this song!
The Ready Set
 Rating:
4/5 (4 votes)

 Love Like Woe lessons Tabs too difficult? Try these video lessons and learn fast
 
                I will eventually be tabbing out the picking for the chorus, but for now just use 
chords. Enjoy :)


Verse

e-----------------2-----------|----------------------------|
B--2/3--3-3-3-3-----7-7--5-3--|--2/3--3-3-3-3-----7-7--5-3-|
G-----------------------------|----------------------------|
D-----------------------------|----------------------------|
A-----------------------------|----------------------------|
E-----------------------------|----------------------------|    ]
                                                               ] x2
e---------5-------------------|---------5------------------|    ]
B--3-3-3-----5/7--5-5--3-3h5--|--3-3-3-----5/7--5-5-3------|
G-----------------------------|-----------------------7----|
D-----------------------------|----------------------------|
A-----------------------------|----------------------------|
E-----------------------------|----------------------------|


Prechorus

e-----------------|---------------|
B--3-7-5-3-5-7-3--|--3-7-5-3-5----|
G-----------------|------------7--|   x2
D-----------------|---------------|
A-----------------|---------------|
E-----------------|---------------|

e---------------|----------------|
B--5/7-5---7-5--|--3-3-3--7-2-3--|
G---------------|----------------|
D---------------|----------------|
A---------------|----------------|
E---------------|----------------|


Chorus

                      C
She's got a love like woe    (whoa oh ohh)
                       G
Girl's got a love like woe    (whoa oh ohh la-da-da)
          Am
I kind of feel like it don't make sense
             F
Cause you're bringin me in and now you're kicking me out again

C
Love so strong
     G
Then you moved on
        Am
Now I'm hung up in suspense
               F
Because you're bringin me and then you're kicking me out again
            
Submit corrections


        Love Like Woe lessons Hard to play? Try these video lessons and learn fast Love Like Woe lessons
        
↑ Back to top | Tablatures and chords for acoustic guitar and electric guitar, ukulele, drums are parodies/interpretations of the original songs. You may use it for private study, scholarship, research or language learning purposes only