Home » T » Therapy »

Therapy - Church Of Noise Tabs

Artists:  A B C D E F G H I J K L M N O P Q R S T U V W X Y Z # 

Church Of Noise Tabs

(ver. 1) Click to play this song!
Therapy
Church of Noise by Therapy?

This is the new single, and can be found on the new album, Semi-Detached,
released 30 March.

-----------------------------------------------------------------------------

E|----------------|
B|----------------|
G|----------------|
D|----------------|
A|----------------|
D|----------0-3-4-|

*|----------------|----------------|<            feedback           >|
 |                |                |                |                |
E|----------------|----------------|----------------|----------------|
B|----------------|----------------|----------------|----------------|
G|----------------|----------------|----------------|----------------|
D|----------------|----------------|----------------|----------------|
A|----------------|----------------|----------------|----------------|
D|5---5-----0-3-4-|4-5-5-----0-3-4-|5---5-----0-3-4-|4-5-5-----0-3-4-|

  G5        D5F5F#5  G5      D5F5F#5G5        D5F5F#5  G5      D5F5F#5
E|----------------|----------------|----------------|----------------|
B|----------------|----------------|----------------|----------------|
G|----------------|----------------|----------------|----------------| x2
D|5---5-----0-3-4-|4-5-5-----0-3-4-|5---5-----0-3-4-|4-5-5-----0-3-4-|
A|5---5-----0-3-4-|4-5-5-----0-3-4-|5---5-----0-3-4-|4-5-5-----0-3-4-|
D|5---5-----0-3-4-|4-5-5-----0-3-4-|5---5-----0-3-4-|4-5-5-----0-3-4-|

  G5        D5F5F#5  G5      D5F5F#5G5        D5F5F#5  G5      D5F5F#5
E|----------------|----------------|----------------|----------------|
B|----------------|----------------|----------------|----------------|
G|----------------|----------------|----------------|----------------| x2
D|5---5-----0-3-4-|4-5-5-----0-3-4-|5---5-----0-3-4-|4-5-5-----0-3-4-|
A|5---5-----0-3-4-|4-5-5-----0-3-4-|5---5-----0-3-4-|4-5-5-----0-3-4-|
D|5---5-----0-3-4-|4-5-5-----0-3-4-|5---5-----0-3-4-|4-5-5-----0-3-4-|
  She goes places I won't go
  She knows things that I don't know

  A5               C5               G5        D5F5F#5  G5
E|----------------|----------------|----------------|----------------|
B|----------------|----------------|----------------|----------------|
G|----------------|5---------------|----------------|----------------|
D|7---------------|5---------------|5---5-----0-3-4-|4-5-5---5-------|
A|7---------------|3---------------|5---5-----0-3-4-|4-5-5---5-------|
D|7---------------|----------------|5---5-----0-3-4-|4-5-5---5-------|
  Welcome to the Church of Noise

  A5               C5               G5
E|----------------|----------------|----------------|----------------|
B|----------------|----------------|----------------|----------------|
G|----------------|5---------------|----------------|----------------|
D|7---------------|5---------------|5-5-5-5-5-5-5-5-|5-5-5-5-5-------|
A|7---------------|3---------------|5-5-5-5-5-5-5-5-|5-5-5-5-5-------|
D|7---------------|----------------|5-5-5-5-5-5-5-5-|5-5-5-5-5-0-3-4-|
  Welcome to the Church of Noise

*|----------------|----------------|<            feedback           >|
 |                |                |                |                |
E|----------------|----------------|----------------|----------------|
B|----------------|----------------|----------------|----------------|
G|----------------|----------------|----------------|----------------|
D|----------------|----------------|----------------|----------------|
A|----------------|----------------|----------------|----------------|
D|5---5-----0-3-4-|4-5-5-----0-3-4-|5---5-----0-3-4-|4-5-5-----0-3-4-|
  It takes more than intellect to be a musician, put your soul into it

  G5        D5F5F#5  G5      D5F5F#5G5        D5F5F#5  G5      D5F5F#5
E|----------------|----------------|----------------|----------------|
B|----------------|----------------|----------------|----------------|
G|----------------|----------------|----------------|----------------| x2
D|5---5-----0-3-4-|4-5-5-----0-3-4-|5---5-----0-3-4-|4-5-5-----0-3-4-|
A|5---5-----0-3-4-|4-5-5-----0-3-4-|5---5-----0-3-4-|4-5-5-----0-3-4-|
D|5---5-----0-3-4-|4-5-5-----0-3-4-|5---5-----0-3-4-|4-5-5-----0-3-4-|
  This goes way beyond belief
  Take this far away from me

  A5               C5               G5        D5F5F#5  G5
E|----------------|----------------|----------------|----------------|
B|----------------|----------------|----------------|----------------|
G|----------------|5---------------|----------------|----------------|
D|7---------------|5---------------|5---5-----0-3-4-|4-5-5---5-------|
A|7---------------|3---------------|5---5-----0-3-4-|4-5-5---5-------|
D|7---------------|----------------|5---5-----0-3-4-|4-5-5---5-------|
  Welcome to the Church of Noise

  A5               C5               G5                         D5C#5C5
E|----------------|----------------|----------------|----------------|
B|----------------|----------------|----------------|----------------|
G|----------------|5---------------|----------------|----------------|
D|7---------------|5---------------|5-5-5-5-5-5-5-5-|5-5-5-5-5-7-6-5-|
A|7---------------|3---------------|5-5-5-5-5-5-5-5-|5-5-5-5-5-5-4-3-|
D|7---------------|----------------|5-5-5-5-5-5-5-5-|5-5-5-5-5-------|
  Welcome to the Church of Noise

  B5                E5                G5                D5
E|--------|--------|--------|--------|--------|--------|--------|--------|
B|--------|--------|--------|--------|--------|--------|--------|--------|
G|4-------|--------|--------|--------|--------|--------|7-------|--------|x2
D|4-------|--------|2-------|--------|7-------|--------|7-------|--------|
A|2-------|--------|2-------|--------|7-------|--------|5-------|--------|
D|--------|--------|2-------|--------|7-------|--------|--------|--------|
  If I see you on the backdoor step, Superstar, you know that radio's dead
    Every life shines out on a Sunday, everything that we killed in regret

  I am lost in your silly life, so bad, one more drink, one more drink to
                                                       my head, to my head

E|----------------|A-------A-------|----------------|A-------A-------|
B|----------------|----------------|----------------|----------------|
G|7-------7-------|----------------|7-------7-------|----------------|
D|----------------|----------------|----------------|----------------|
A|----------------|----------------|----------------|----------------|
D|----------------|----------------|----------------|----------------|
 |                                                                   |
 |G5        D5F5F#5  G5      D5F5F#5G5        D5F5F#5  G5      D5F5F#5
E|----------------|----------------|----------------|----------------|
B|----------------|----------------|----------------|----------------|
G|----------------|----------------|----------------|----------------|
D|5---5-----0-3-4-|4-5-5-----0-3-4-|5---5-----0-3-4-|4-5-5-----0-3-4-|
A|5---5-----0-3-4-|4-5-5-----0-3-4-|5---5-----0-3-4-|4-5-5-----0-3-4-|
D|5---5-----0-3-4-|4-5-5-----0-3-4-|5---5-----0-3-4-|4-5-5-----0-3-4-|

E|----------------|----------------|----------------|----------------|
B|----------------|----------------|----------------|----------------|
G|---?--?--?--?---|-madcap solo in-|-D?  Any ideas?-|---?--?--?--?---|
D|----------------|----------------|----------------|----------------|
A|----------------|----------------|----------------|----------------|
D|----------------|----------------|----------------|----------------|
 |                                                                   |
 |G5        D5F5F#5  G5      D5F5F#5G5        D5F5F#5  G5      D5F5F#5
E|----------------|----------------|----------------|----------------|
B|----------------|----------------|----------------|----------------|
G|----------------|----------------|----------------|----------------|
D|5---5-----0-3-4-|4-5-5-----0-3-4-|5---5-----0-3-4-|4-5-5-----0-3-4-|
A|5---5-----0-3-4-|4-5-5-----0-3-4-|5---5-----0-3-4-|4-5-5-----0-3-4-|
D|5---5-----0-3-4-|4-5-5-----0-3-4-|5---5-----0-3-4-|4-5-5-----0-3-4-|

E|----------------|----------------|----------------|----------------|
B|----------------|----------------|----------------|----------------|
G|----------------|----------------|----------------|----------------| x2
D|5---5-----0-3-4-|4-5-5-----0-3-4-|5---5-----0-3-4-|4-5-5-----0-3-4-|
A|5---5-----0-3-4-|4-5-5-----0-3-4-|5---5-----0-3-4-|4-5-5-----0-3-4-|
D|5---5-----0-3-4-|4-5-5-----0-3-4-|5---5-----0-3-4-|4-5-5-----0-3-4-|
  Red skies, summer marches on
  We should go away together, mongrels in a mess forever

  A5               C5               G5        D5F5F#5  G5
E|----------------|----------------|----------------|----------------|
B|----------------|----------------|----------------|----------------|
G|----------------|5---------------|----------------|----------------| x3
D|7---------------|5---------------|5---5-----0-3-4-|4-5-5---5-------|
A|7---------------|3---------------|5---5-----0-3-4-|4-5-5---5-------|
D|7---------------|----------------|5---5-----0-3-4-|4-5-5---5-------|
  Welcome to the Church of Noise (welcome, welcome)

  A5               C5               G5
E|----------------|----------------|----------------|
B|----------------|----------------|----------------|
G|----------------|5---------------|----------------|
D|7---------------|5---------------|5-5-5-5-5-5-5-5-|
A|7---------------|3---------------|5-5-5-5-5-5-5-5-|
D|7---------------|----------------|5-5-5-5-5-5-5-5-|
  Welcome to the Church of Noise (welcome, welcome)

  D5  C5  B5  A5   G5               D5  C5  B5  A5   G5
E|----------------|----------------|----------------|----------------|
B|----------------|----------------|----------------|----------------|
G|----------------|----------------|----------------|----------------|
D|7---5---4--2----|5---------------|7---5---4---2---|5---------------|
A|5---3---2--0----|5---------------|5---3---2---0---|5---------------|
D|----------------|5---------------|----------------|5---------------|

  D5  C5  B5  A5   F5  F#5 G5
E|----------------|----------------|----------------|----------------|
B|----------------|----------------|----------------|----------------|
G|----------------|----------------|----------------|----------------|
D|7---5---4---2---|3---4---5-------|----------------|----------------|
A|5---3---2---0---|3---4---5-------|----------------|----------------|
D|----------------|3---4---5-------|----------------|----------------|

Fade out to accordian -- anyone want to transcribe this?!
            
Submit corrections

↑ Back to top | Tablatures and chords for acoustic guitar and electric guitar, ukulele, drums are parodies/interpretations of the original songs. You may use it for private study, scholarship, research or language learning purposes only