» » »

The Raconteurs - Now That Youre Gone Chords

Artists:  A B C D E F G H I J K L M N O P Q R S T U V W X Y Z # 

Now That Youre Gone Chords

(ver. 2) Click to play this song!
The Raconteurs
 Rating:
4.3/5 (20 votes)

 Now That Youre Gone lessons Tabs too difficult? Try these video lessons and learn fast
 
                [Intro]
Guitar 1
e|---------------|---------------|---------------|---------------|
B|---------------|---------------|---------------|---------------|
G|--------0------|--------0------|--------0------|--------0------|
D|------2---2----|------2---2----|------0---0----|------0---0----|
A|----2-------2--|----2----------|----2-------2--|----2----------|
E|--0------------|--0---------2--|--3------------|--3---------2--|

e|---------------|---------------|
B|---------------|---------------|
G|--------0------|--------0------|
D|------2---2----|------2---2----|
A|----2-------2--|----2----------|
E|--0------------|--0---------2--|


[Guitar 2]
e|---------------|---------------|---------------|---------------|
B|---------------|---------------|-----8---------|-----8---------|
G|---------------|---------------|--/9---9\2--0--|--/9---9\2--0--|
D|---------------|---------------|---------------|---------------| (x2)
A|---------------|---------------|---------------|---------------|
E|---------------|---------------|---------------|---------------|


[Verse 1]
Guitar 2
e|---------------|---------------|---------------|---------------|
B|---------------|---------------|---------------|-----8---------|
G|---------------|---------------|---------------|--/9---9\2--0--|
D|---------------|---------------|---------------|---------------|
A|---------------|---------------|---------------|---------------|
E|---------------|---------------|---------------|---------------|

e|---------------|---------------|---------------|-----------------|
B|---------------|---------------|---------------|-----8-10br11-8--|
G|---------------|---------------|---------------|--/9-------------|
D|---------------|---------------|---------------|-----------------|
A|---------------|---------------|---------------|-----------------|
E|---------------|---------------|---------------|-----------------|

e|---------------|---------------|---------------|-----------------|
B|---------------|---------------|-----8---------|-------8---------|
G|---------------|---------------|--/9---9\2--0--|-/9-/9---9\2--0--|
D|---------------|---------------|---------------|-----------------|
A|---------------|---------------|---------------|-----------------|
E|---------------|---------------|---------------|-----------------|

Guitar 2
e|---------------|---------------|-------------------------------||
B|---------------|---------------|-----8---8-10-10b-10p8---------||
G|---------------|---------------|--/9---9---------------9-------||
D|---------------|---------------|-------------------------------||
A|---------------|---------------|-------------------------------||
E|---------------|---------------|-------------------------------||
Guitar 1                                                          |
e|---------------|---------------|---------------|--------0------||
B|---------------|---------------|---------------|----------0----||
G|---------------|---------------|---------------|------0-----0--||
D|---------------|---------------|---------------|----2----------||
A|---------------|---------------|---------------|--2------------||
E|---------------|---------------|---------------|---------------||


[Chorus 1]
Guitar 1
e|--------3------|--------2------|---------------|--------0------|
B|----------1----|------3---3----|--------3------|----------0----|
G|------------0--|----2-------2--|------4---4----|------------0--|
D|------0--------|--0------------|----4-------4--|------2--------|
A|----2----------|---------------|--2------------|----2----------|
E|--3------------|---------------|---------------|--0------------|

e|--------3------|---------------|
B|----------1----|--3------------|
G|------------0--|--2------------|
D|------0--------|--0------------|
A|----2----------|---------------|
E|--3------------|---------------|


[Post-Chorus 1]
Guitar 2
e|---------------|---------------|------------------------------|
B|---------------|---------------|--10b12p8----8-------8--------|
G|---------------|---------------|----------9-----9-9-----------|
D|---------------|---------------|------------------------------|
A|---------------|---------------|------------------------------|
E|---------------|---------------|------------------------------|

e|---------------|---------------|---------------|---------------|
B|-8b-h12p8------|-8b-h12p8h12-8-|-----8------8--|---------------|
G|---------------|---------------|--/9-----/9----|--\2-0----2-0--|
D|---------------|---------------|---------------|---------------|
A|---------------|---------------|---------------|---------------|
E|---------------|---------------|---------------|---------------|


[Verse 2]
[Guitar 2]
e|---------------|---------------|---------------|---------------|
B|---------------|---------------|-----8---------|-----8---------|
G|---------------|---------------|--/9---9\2--0--|--/9---9\2--0--|
D|---------------|---------------|---------------|---------------|
A|---------------|---------------|---------------|---------------|
E|---------------|---------------|---------------|---------------|

e|---------------|---------------|---------------|----------------|
B|---------------|---------------|---------------|----8-10br11-8--|
G|---------------|---------------|---------------|-/9------------9|
D|---------------|---------------|---------------|----------------|
A|---------------|---------------|---------------|----------------|
E|---------------|---------------|---------------|----------------|

e|---------------|---------------|-------------10-12-(12)-----10-12-12--|
B|---------------|---------------|-10br12-8/12-----------/12------------|
G|---------------|---------------|--------------------------------------|
D|---------------|---------------|--------------------------------------|
A|---------------|---------------|--------------------------------------|
E|---------------|---------------|--------------------------------------|

e|---------------|---------------|---------------|------------------|
B|---------------|---------------|---------------|-10pbr12-8---8----|
G|---------------|---------------|---------------|-----------9---9--|
D|---------------|---------------|---------------|------------------|
A|---------------|---------------|---------------|------------------|
E|---------------|---------------|---------------|------------------|


[Chorus 2]
e|--------3------|--------2------|---------------|--------0------|
B|----------1----|------3---3----|--------3------|----------0----|
G|------------0--|----2-------2--|------4---4----|------------0--|
D|------0--------|--0------------|----4-------4--|------2--------|
A|----2----------|---------------|--2------------|----2----------|
E|--3------------|---------------|---------------|--0------------|

e|--------3------|---------------|
B|----------1----|--3------------|
G|------------0--|--2------------|
D|------0--------|--0------------|
A|----2----------|---------------|
E|--3------------|---------------|


[Post-Chorus 2]
Guitar 2
e|---------------|---7-----7----------------------|---------------|
B|---------------|---10b--10b--8---------------8--|---------------|
G|---------------|---------------9--9--9--9--9----|---------------|
D|---------------|--------------------------------|---------------|
A|---------------|--------------------------------|---------------|
E|---------------|--------------------------------|---------------|

Guitar 2
e|----18br20p15-----15----15---------------------|---------------||
B|---------------18----18----18b20-18------------|---------------||
G|-------------------------------------17b19-----|---------------||
D|-----------------------------------------------|---------------||
A|-----------------------------------------------|---------------||
E|-----------------------------------------------|---------------||
Guitar 1                                                          |
e|---------------|---------------|---------------|--------0------||
B|---------------|---------------|---------------|----------0----||
G|---------------|---------------|---------------|------0-----0--||
D|---------------|---------------|---------------|----2----------||
A|---------------|---------------|---------------|--2------------||
E|---------------|---------------|---------------|---------------||


[Solo]
e|------------------------------------|-------------------------------|
B|-----8--10-10b11--8-----8-8---------|-----8-10b11-10pb11-10pbr11-8--|
G|--/9------------------9--------9-9--|--/9---------------------------|
D|------------------------------------|-------------------------------|
A|------------------------------------|-------------------------------|
E|------------------------------------|-------------------------------|

e|------------------------------|--------------12---15-12-----------------------------|
B|--8-10br11p8------------------|--15-15-12-15------------15-12-15b17-15b17-15-12-12--|
G|9------------9---9-9--9-9--9--|-----------------------------------------------------|
D|------------------------------|-----------------------------------------------------|
A|------------------------------|-----------------------------------------------------|
E|------------------------------|-----------------------------------------------------|

e|------------------------------------------------------------------|
B|------------------------------------------------------------------|
G|------------------------------------------------------------------|
D|-----------17-------17-------17-------17-------17-------17--------|
A|-----14-17----14-17----14-17----14-17----14-17----14-17----14-17--|
E|--15--------------------------------------------------------------|

e|--------------------------------------|-----------------------12-12---15b17-15b17-15b17-15-12--------0-0-0-|
B|--------------------------------------|-------15-12-15-12-15----------------------------------15b17--5-5-5-|
G|--------12h14-14br16p12-----12h14p12--|-14b16--------------------------------------------------------------|
D|--12h14-----------------14------------|--------------------------------------------------------------------|
A|--------------------------------------|--------------------------------------------------------------------|
E|--------------------------------------|--------------------------------------------------------------------|


[Chorus 3]
e|--------3------|--------2------|---------------|--------0------|
B|----------1----|------3---3----|--------3------|----------0----|
G|------------0--|----2-------2--|------4---4----|------------0--|
D|------0--------|--0------------|----4-------4--|------2--------|
A|----2----------|---------------|--2------------|----2----------|
E|--3------------|---------------|---------------|--0------------|

e|--------3------|---------------|
B|----------1----|--3------------|
G|------------0--|--2------------|
D|------0--------|--0------------|
A|----2----------|---------------|
E|--3------------|---------------|


[Post-Chorus 3]
e|---------------|---------------|---------------|---------------|
B|---------------|---------------|---------------|---------------|
G|---------------|---------------|---------------|---------------|
D|---------------|---------------|---------------|---------------|
A|---------------|---------------|---------------|---------------|
E|---------------|---------------|---------------|---------------|

e|---------------|---------------|---------------|---------------|
B|---------------|---------------|---------------|---------------|
G|---------------|---------------|---------------|---------------|
D|---------------|---------------|---------------|---------------|
A|---------------|---------------|---------------|---------------|
E|---------------|---------------|---------------|---------------|


[Outro]
e|-----------------------------------------|---------------------------------|
B|--10--10----10--10----10--10----10-10-9--|--7--7----7--7----7--7----7-7-9--|
G|---9---9-----9---9-----9---9-----9--9-8--|--6--6----6--6----6--6----6-6-8--|
D|--10--10----10--10----10--10----10-10-9--|--7--7----7--7----7--7----7-7-9--| (x4)
A|-----------------------------------------|---------------------------------|
E|-----------------------------------------|---------------------------------|

            
Submit corrections


        Now That Youre Gone lessons Hard to play? Try these video lessons and learn fast Now That Youre Gone lessons
        
↑ Back to top | Tablatures and chords for acoustic guitar and electric guitar, ukulele, drums are parodies/interpretations of the original songs. You may use it for private study, scholarship, research or language learning purposes only