» » »

The Raconteurs - Now That Youre Gone Bass

Artists:  A B C D E F G H I J K L M N O P Q R S T U V W X Y Z # 

Now That Youre Gone Bass

(ver. 1) Click to play this song!
The Raconteurs
 Rating:
4.3/5 (20 votes)

 Now That Youre Gone lessons Tabs too difficult? Try these video lessons and learn fast
 
                Intro (1st Part) ~ 0.00 - 0.11
{No Bass} 

(2nd Part) ~ 0.12 - 0.23
G|------------------------------------------|
D|------------------------------------------|     {Short Pause after 2nd time}
A|------------------------------------------|
E|-3--3--3-3-2-0--0--0-0-2-3--3--3-3-2--0---|

Verse 1 ~ 0.26 - 0.55
"What will you do? Now that you're gone...."
G|------------------------|
D|------------------------|     
A|------------------------| x 4 {the fourth time it goes straight to the chorus after the last note}
E|-3--3--3-3-2-0--0--0-0-2|

Chorus ~ 0.55 - 1.05 
"Never known such unhappiness..."
G|------------------------|------------------------|---------------------|
D|------------------------|-------------2-2-2-2-2-2|---------------------|     
A|-3-3-3-3-5-3-5-5-5-5-7-5|-2-2-2-2-5-2------------|-3-3-3-3-3-3-5~\-----|
E|------------------------|------------------------|---------------------|

Post Chorus? ~ 1.05 - 1.20 
"Now that you're gone..."
G|------------------------|
D|------------------------|     
A|------------------------| x2
E|-3--3--3-3-2-0--0--0-0-2|

Verse 2 ~ 1.20 - 1.49
"And what will you do? now you're all alone..."
G|------------------------|
D|------------------------|     
A|------------------------| x4 
E|-3--3--3-3-2-0--0--0-0-2|

Chorus ~ 1.49 - 1.59
"Never known such unhappiness..."
G|------------------------|------------------------|-------------------|
D|------------------------|-------------2-2-2-2-2-2|-------------------|     
A|-3-3-3-3-5-3-5-5-5-5-7-5|-2-2-2-2-5-2------------|-3-3-3-3-3-3-5~\---|
E|------------------------|------------------------|-------------------|

Post Chorus? ~ 2.00 - 2.11
"Now that you're gone..."
G|------------------------|
D|------------------------|     
A|------------------------| x2  {Short Pause after 2nd time}
E|-3--3--3-3-2-0--0--0-0-2|

Guitar Solo/Bridge ~ 2.15 - 2.42
(You could play it the same as the verse is played but I'm pretty sure it's like this)
G|---------------------------------------|
D|---------------------------------------|     
A|---------------------------------------| x4 
E|-3--3-3--3-3--3-3-2-0--0-0--0-0--0-0--2|

Chorus ~ 2.43 - 2.52
"Never known such unhappiness..."
G|------------------------|------------------------|-------------------|
D|------------------------|-------------2-2-2-2-2-2|-------------------|     
A|-3-3-3-3-5-3-5-5-5-5-7-5|-2-2-2-2-5-2------------|-3-3-3-3-3-3-5~\---|
E|------------------------|------------------------|-------------------|

Post Chorus? ~ 2.54 - 3.08
"Now that you're gone..."
G|------------------------|
D|------------------------|     
A|------------------------| x2 
E|-3--3--3-3-2-0--0--0-0-2|

Outro 3.09 - End
G|---------------------------------------|
D|---------------------------------------|     
A|---------------------------------------| x5 {Last 3 times begins to fade out}
E|-3--3-3--3-3--3-3-2-0--0-0--0-0--0-0--2|
            
Submit corrections


        Now That Youre Gone lessons Hard to play? Try these video lessons and learn fast Now That Youre Gone lessons
        
↑ Back to top | Tablatures and chords for acoustic guitar and electric guitar, ukulele, drums are parodies/interpretations of the original songs. You may use it for private study, scholarship, research or language learning purposes only