Home » T » The Protomen »

The Protomen - The Stand Tabs

Artists:  A B C D E F G H I J K L M N O P Q R S T U V W X Y Z # 

The Stand Tabs

(ver. 2) Click to play this song!
The Protomen
e|---------------------------------12--15-12-13-12---------12--13--12--------------------------|
b|-------------------------------13----------------------12------------------------------------|
g|---8----7----5---------------14----14----------------13----13--13--13------------------------|
d|---8----7----5---------------------------------------------------------------7-----5-----3---|
a|---6----5----3---------------------------------------------------------------7-----5-----3---|
e|-----------------------------------------------------------------------------5-----3-----1---|
  do this top riff part 2 times         repeat 12 times          do this once
e|---------------------------------------------------------------------------------------------|
b|---------------------------------------------------------------------------------------------|
g|--2---2---2-2---2----2---2---2-2---2----2---2---2-2---2----1---1---1-1---3-------------------|
d|--2---2---2-2---2----2---2---2-2---2----2---2---2-2---2----2---2---2-2---2-------------------|
a|--0---0---0-0---0----0---0---0-0---0----0---0---0-0---0----2---2---2-2---2-------------------|
e|---------------------3---3---3-3---3----1---1---1-1---1----0---0---0-0---0-------------------|
   do this bottom riff 10 times
e|------12--15--12--13--12----------5--7-8--7--5-----------------------------------------------|
b|----13-----------------------------------------5---------------------------------------------|
g|--14----14-----------------------------------------------------------------------------------|
d|---------------------------------------------------------------------------------------------|
a|---------------------------------------------------------------------------------------------|
e|---------------------------------------------------------------------------------------------|
            
Submit corrections

↑ Back to top | Tablatures and chords for acoustic guitar and electric guitar, ukulele, drums are parodies/interpretations of the original songs. You may use it for private study, scholarship, research or language learning purposes only