Home » T » The Organ »

The Organ - Brother Tabs

Artists:  A B C D E F G H I J K L M N O P Q R S T U V W X Y Z # 

Brother Tabs

(ver. 2) Click to play this song!
The Organ
--------------------------------------------------------------------------
                             The Organ - Brother
--------------------------------------------------------------------------
Band: The Organ


This is my correction with the help from the other tab

This is just the main riff:

Tuning:Standard

Intro:

e|----------------------------------------------------------------------|
B|------5------5--------------------------------------------------------|
G|------5------5--------------------------------------------------------|
D|-------------0--------------------------------------------------------|
A|----------------------------------------------------------------------|
E|----------------------------------------------------------------------|

Main Riff:

e|----------------------------------------------------------------------|
B|--------------------------5--5--5--5---8--5--5-8-5-8------------------|
G|----------------9-9-9-9-9-5--5--5--5----------------------------------|
D|-----7-7h9-9-9--------------------------------------------------------|
A|----------------------------------------------------------------------|
E|----------------------------------------------------------------------|

Chorus Riff:


e|--12---12---12----13----12----10--10--13--10--10--12-------------------|
B|--12---12---12----12----12----10--10--10--10--10--10-------------------|
G|--13---13---13----13----13----10--10--10--10--10--10-------------------|
D|-----------------------------------------------------------------------|x2
A|-----------------------------------------------------------------------|
E|-----------------------------------------------------------------------|

| /  slide up
| \  slide down
| h  hammer-on
| p  pull-off
| ~  vibrato
| +  harmonic
| x  Mute note
==========================================================================
            
Submit corrections

↑ Back to top | Tablatures and chords for acoustic guitar and electric guitar, ukulele, drums are parodies/interpretations of the original songs. You may use it for private study, scholarship, research or language learning purposes only