» » »

The Neighbourhood - Prey Tabs

Artists:  A B C D E F G H I J K L M N O P Q R S T U V W X Y Z # 

Prey Tabs

(ver. 3) Click to play this song!
The Neighbourhood
 Rating:
2.9/5 (22 votes)

 Prey  lessons Tabs too difficult? Try these video lessons and learn fast
 
                Tuning: full step down (DGCfdb)

VERSE 
e|---7-7---7---7-7---10-9-7---7-7---7---5-5---7-5-----------------------------------|
B|---8-8---8---8-8----8-8-8---7-7---7---7-7---7-7-----------------------------------|
G|---9-9---9---9-9----9-9-9---7-7---7---7-7---7-7-----------------------------------|
D|----------------------------------------------------------------------------------|
A|----------------------------------------------------------------------------------|
E|----------------------------------------------------------------------------------|

CHORUS(whole thing gets played twice)
4 counts each chord. except for the 
D chord only gets two (Ive marked it with the little arrows)        
e|--3---0---2-----2----------------0---3---2---2-------------------------------------|
B|--3---0---3-----3----------------0---3---3---3-------------------------------------|
G|--4---0---4-----2----------------0---4---4---4-------------------------------------|
D|--5---2---4-----0----------------2---5---4---4-------------------------------------|
A|--5---2---2-----x----------------2---5---2---2-------------------------------------|
E|--3---0---0-----x----------------0---3---0---0-------------------------------------|
  six counts^     ^Two counts

BRIDGE 
2 counts on the first two chords and 8 on the third
e|---5---7----3-----------5---7----0------------------------------------------------|
B|---5---7----3-----------5---7----0------------------------------------------------|
G|---6---8----4-----------6---8----0------------------------------------------------|
D|---7---9----5-----------7---9----2------------------------------------------------|
A|---7---9----5-----------7---9----2------------------------------------------------|
E|---5---7----3-----------5---7----0------------------------------------------------|

OUTRO (Play four times)      the last time end on 
e|---3---0-------------- ----------7-------------
B|---3---0-------------- ----------7-------------
G|---4---0-------------- ----------8-------------
D|---5---2-------------- ----------9-------------
A|---5---2-------------- ----------9-------------
E|---3---0-------------- ----------7-------------            
Submit corrections


        Prey  lessons Hard to play? Try these video lessons and learn fast Prey  lessons
        
↑ Back to top | Tablatures and chords for acoustic guitar and electric guitar, ukulele, drums are parodies/interpretations of the original songs. You may use it for private study, scholarship, research or language learning purposes only