» » »

The Neighbourhood - Baby Came Home Tabs

Artists:  A B C D E F G H I J K L M N O P Q R S T U V W X Y Z # 

Baby Came Home Tabs

(ver. 2) Click to play this song!
The Neighbourhood
 Rating:
4.3/5 (21 vote)

 Baby Came Home lessons Tabs too difficult? Try these video lessons and learn fast
 
                [Intro]
e|-------------------------|------------------------------------|
B|--10--10---10-10\8--8--8-|-8--8---6--6----6/10----------------|
G|-------------------------|-------------7----------------------|
D|----12--12--------10-10--|---9--9---8-------------------------|
A|-------------------------|------------------------------------|
E|-------------------------|------------------------------------|

[Chorus]
       F   G   G#  A        A   G   F
e|-----1---3---4---5------|-5---3---1---------------------------|
B|-----1---3---4---5------|-5---3---1---------------------------|
G|-----2---4---5---6--X3--|-6---4---2---------------------------| 
D|-----3---5---6---7------|-7---5---3---------------------------| Thinking about her...
A|-----3---5---6---7------|-7---5---3---------------------------| That even you would know..
E|-----1---3---4---6------|-5---3---1---------------------------|

[Verse]
e|-------------------------|------------------------------------|
B|--10--10---10-10\8--8--8-|-8--8---6--6----6/10----------------|
G|-------------------------|-------------7----------------------|
D|----12--12--------10-10--|---9--9---8-------------------------|
A|-------------------------|------------------------------------|
E|-------------------------|------------------------------------|

[Chorus]
       F   G   G#  A        A   G   F
e|-----1---3---4---5------|-5---3---1---------------------------|
B|-----1---3---4---5------|-5---3---1---------------------------|
G|-----2---4---5---6--X3--|-6---4---2---------------------------| 
D|-----3---5---6---7------|-7---5---3---------------------------| Thinking about her...
A|-----3---5---6---7------|-7---5---3---------------------------| That even you would know..
E|-----1---3---4---6------|-5---3---1---------------------------|

[Post-Chorus]
e|----------------------------|---------------------------------|
B|--10--10--8---8---7--7--6--6|---------------------------------|
G|--10--10--9---9---6--6--7--7|---------------------------------|
D|--12--12--10--10--9--9--9--9|---------------------------------|
A|----------------------------|---------------------------------|
E|----------------------------|---------------------------------|

[Solo]
e|---------------------------------|----------------------------|
B|----------------------10--10--10-|-10-------------------------|
G|-----------10--12b10--12b-12b-12b|-12b10----------------------|
D|----/10-12-----------------------|----------------------------|
A|---------------------------------|----------------------------|
E|---------------------------------|----------------------------|

e|-------------------------------|------------------------------|
B|--------------13---------------|-----10--10--10--10-----------|
G|--------10-12----12b10---------|-10--12b-12b-12b-12b-12b10----|
D|----/12----------------12-10-12|------------------------------|
A|-------------------------------|------------------------------|
E|-------------------------------|------------------------------|

e|--------------------------|-----10--10-----10-----------------|
B|----10--10--10--10--------|-----13b-13b-10-13b----------------|
G|----12b-12b-12b-12b--10-7-|-----------------------------------|
D|--------------------------|-10-0------------------------------|
A|--------------------------|-----------------------------------|
E|--------------------------|-----------------------------------|

e|----------------------------|---------------------------------|
B|----6--6--6-----------------|---------------------------------|
G|----8b-8b-8b7--5/7----------|---------------------------------|
D|----------------------------|---------------------------------|
A|----------------------------|---------------------------------|
E|----------------------------|---------------------------------|

[Chorus]
 F   G   G#  A        A   G   F
e|-----1---3---4---5------|-5---3---1---------------------------|
B|-----1---3---4---5------|-5---3---1---------------------------|
G|-----2---4---5---6--X3--|-6---4---2---------------------------| 
D|-----3---5---6---7------|-7---5---3---------------------------| Thinking about her...
A|-----3---5---6---7------|-7---5---3---------------------------| That even you would know..
E|-----1---3---4---6------|-5---3---1---------------------------|

[Outro]
e|-------------------------|------------------------------------|
B|--10--10---10-10\8--8--8-|-8--8---6--6----6/10----------------|
G|-------------------------|-------------7----------------------|
D|----12--12--------10-10--|---9--9---8-------------------------|
A|-------------------------|------------------------------------|
E|-------------------------|------------------------------------|            
Submit corrections


        Baby Came Home lessons Hard to play? Try these video lessons and learn fast Baby Came Home lessons
        
↑ Back to top | Tablatures and chords for acoustic guitar and electric guitar, ukulele, drums are parodies/interpretations of the original songs. You may use it for private study, scholarship, research or language learning purposes only