Home » T » The National »

The National - Mistaken For Strangers Bass

Artists:  A B C D E F G H I J K L M N O P Q R S T U V W X Y Z # 

Mistaken For Strangers Bass

(ver. 1) Click to play this song!
The National

Tuning: Standard EADG

This first part comes in on the last chord of the second
run through of the verse at the very beginning of the song.

G|---------------------------------------------------------------------|
D|---------------------------------------------------------------------|
A|-8--8--8--8--3--3--3-------------------------------------------------|
E|---------------------------------------------------------------------|

Verse:

(You have to do it running ...)

G|----------------------------------------------------------------------|
D|----------------------------------------------------------------------|
A|----------------------------------------------------------------------|
E|-5--5--5--5--5--5--5--6-----6--6--6--6--6--6--8-----8--8--8--8--8--8--|

G|---------------------------------------------------------------------|
D|---------------------------------------------------------------------|
A|-10-----10--10--10--10--10--10--10-----------------------------------|
E|---------------------------------------------------------------------|

Chorus:

(You get mistaken for strangers by your own friends...)

G|---------------------------------------------------------------------|
D|---------------------------------------------------------------------|
A|-5--5--5--5--5--5--7--8--8--8--8--8--8--8----------------------------|
E|-------------------------------------------5--6--6--6--6--6--6--6--5-|

G|---------------------------------------------------------------------|
D|---------------------------------------------------------------------|
A|-8--8--8--8--8--8--8----------------------------8--8--8--8--8--8---8-|
E|----------------------5--6--6--6--6--6--6--6--5----------------------|

G|---------------------------------------------------------------------|
D|---------------------------------------------------------------------|
A|---------------------------------------------------------------------|
E|-5--5--5--5--5--5--5--5--5--5--5--5--5--5--5--5----------------------|
            
Submit corrections

↑ Back to top | Tablatures and chords for acoustic guitar and electric guitar, ukulele, drums are parodies/interpretations of the original songs. You may use it for private study, scholarship, research or language learning purposes only